  0
SECTION
  2
HEADER
  9
$ACADVER
  1
AC1015
  9
$ACADMAINTVER
 70
     6
  9
$DWGCODEPAGE
  3
ANSI_1254
  9
$INSBASE
 10
0.0
 20
0.0
 30
0.0
  9
$EXTMIN
 10
0.0
 20
0.0
 30
0.0
  9
$EXTMAX
 10
279.4
 20
215.9
 30
0.0
  9
$LIMMIN
 10
0.0
 20
0.0
  9
$LIMMAX
 10
279.4
 20
215.9
  9
$ORTHOMODE
 70
     0
  9
$REGENMODE
 70
     1
  9
$FILLMODE
 70
     1
  9
$QTEXTMODE
 70
     0
  9
$MIRRTEXT
 70
     1
  9
$LTSCALE
 40
1.0
  9
$ATTMODE
 70
     1
  9
$TEXTSIZE
 40
3.5
  9
$TRACEWID
 40
1.0
  9
$TEXTSTYLE
  7
Standard
  9
$CLAYER
  8
0
  9
$CELTYPE
  6
ByLayer
  9
$CECOLOR
 62
   256
  9
$CELTSCALE
 40
1.0
  9
$DISPSILH
 70
     0
  9
$DIMSCALE
 40
1.0
  9
$DIMASZ
 40
3.5
  9
$DIMEXO
 40
1.0
  9
$DIMDLI
 40
3.75
  9
$DIMRND
 40
0.0
  9
$DIMDLE
 40
0.0
  9
$DIMEXE
 40
1.0
  9
$DIMTP
 40
0.0
  9
$DIMTM
 40
0.0
  9
$DIMTXT
 40
3.5
  9
$DIMCEN
 40
2.5
  9
$DIMTSZ
 40
0.0
  9
$DIMTOL
 70
     0
  9
$DIMLIM
 70
     0
  9
$DIMTIH
 70
     1
  9
$DIMTOH
 70
     1
  9
$DIMSE1
 70
     0
  9
$DIMSE2
 70
     0
  9
$DIMTAD
 70
     1
  9
$DIMZIN
 70
     0
  9
$DIMBLK
  1

  9
$DIMASO
 70
     1
  9
$DIMSHO
 70
     1
  9
$DIMPOST
  1

  9
$DIMAPOST
  1

  9
$DIMALT
 70
     0
  9
$DIMALTD
 70
     3
  9
$DIMALTF
 40
0.0393700787
  9
$DIMLFAC
 40
1.0
  9
$DIMTOFL
 70
     1
  9
$DIMTVP
 40
0.0
  9
$DIMTIX
 70
     0
  9
$DIMSOXD
 70
     0
  9
$DIMSAH
 70
     0
  9
$DIMBLK1
  1

  9
$DIMBLK2
  1

  9
$DIMSTYLE
  2
ISO-25
  9
$DIMCLRD
 70
     0
  9
$DIMCLRE
 70
     0
  9
$DIMCLRT
 70
     0
  9
$DIMTFAC
 40
1.0
  9
$DIMGAP
 40
1.524
  9
$DIMJUST
 70
     0
  9
$DIMSD1
 70
     0
  9
$DIMSD2
 70
     0
  9
$DIMTOLJ
 70
     0
  9
$DIMTZIN
 70
     0
  9
$DIMALTZ
 70
     0
  9
$DIMALTTZ
 70
     0
  9
$DIMUPT
 70
     0
  9
$DIMDEC
 70
     2
  9
$DIMTDEC
 70
     2
  9
$DIMALTU
 70
     2
  9
$DIMALTTD
 70
     3
  9
$DIMTXSTY
  7
Standard
  9
$DIMAUNIT
 70
     0
  9
$DIMADEC
 70
     2
  9
$DIMALTRND
 40
0.0
  9
$DIMAZIN
 70
     0
  9
$DIMDSEP
 70
    44
  9
$DIMATFIT
 70
     3
  9
$DIMFRAC
 70
     0
  9
$DIMLDRBLK
  1

  9
$DIMLUNIT
 70
     2
  9
$DIMLWD
 70
    -2
  9
$DIMLWE
 70
    -2
  9
$DIMTMOVE
 70
     0
  9
$LUNITS
 70
     2
  9
$LUPREC
 70
     2
  9
$SKETCHINC
 40
1.0
  9
$FILLETRAD
 40
10.0
  9
$AUNITS
 70
     0
  9
$AUPREC
 70
     2
  9
$MENU
  1
.
  9
$ELEVATION
 40
0.0
  9
$PELEVATION
 40
0.0
  9
$THICKNESS
 40
0.0
  9
$LIMCHECK
 70
     0
  9
$CHAMFERA
 40
0.0
  9
$CHAMFERB
 40
0.0
  9
$CHAMFERC
 40
0.0
  9
$CHAMFERD
 40
0.0
  9
$SKPOLY
 70
     0
  9
$TDCREATE
 40
2459935.710500475
  9
$TDUCREATE
 40
2459935.585500475
  9
$TDUPDATE
 40
2459935.710500648
  9
$TDUUPDATE
 40
2459935.585500648
  9
$TDINDWG
 40
0.0000000116
  9
$TDUSRTIMER
 40
0.0000000116
  9
$USRTIMER
 70
     1
  9
$ANGBASE
 50
0.0
  9
$ANGDIR
 70
     0
  9
$PDMODE
 70
     0
  9
$PDSIZE
 40
-1.0
  9
$PLINEWID
 40
0.0
  9
$SPLFRAME
 70
     0
  9
$SPLINETYPE
 70
     6
  9
$SPLINESEGS
 70
     8
  9
$HANDSEED
  5
128
  9
$SURFTAB1
 70
     6
  9
$SURFTAB2
 70
     6
  9
$SURFTYPE
 70
     6
  9
$SURFU
 70
     6
  9
$SURFV
 70
     6
  9
$UCSBASE
  2

  9
$UCSNAME
  2

  9
$UCSORG
 10
0.0
 20
0.0
 30
0.0
  9
$UCSXDIR
 10
1.0
 20
0.0
 30
0.0
  9
$UCSYDIR
 10
0.0
 20
1.0
 30
0.0
  9
$UCSORTHOREF
  2

  9
$UCSORTHOVIEW
 70
     0
  9
$UCSORGTOP
 10
0.0
 20
0.0
 30
0.0
  9
$UCSORGBOTTOM
 10
0.0
 20
0.0
 30
0.0
  9
$UCSORGLEFT
 10
0.0
 20
0.0
 30
0.0
  9
$UCSORGRIGHT
 10
0.0
 20
0.0
 30
0.0
  9
$UCSORGFRONT
 10
0.0
 20
0.0
 30
0.0
  9
$UCSORGBACK
 10
0.0
 20
0.0
 30
0.0
  9
$PUCSBASE
  2

  9
$PUCSNAME
  2

  9
$PUCSORG
 10
0.0
 20
0.0
 30
0.0
  9
$PUCSXDIR
 10
1.0
 20
0.0
 30
0.0
  9
$PUCSYDIR
 10
0.0
 20
1.0
 30
0.0
  9
$PUCSORTHOREF
  2

  9
$PUCSORTHOVIEW
 70
     0
  9
$PUCSORGTOP
 10
0.0
 20
0.0
 30
0.0
  9
$PUCSORGBOTTOM
 10
0.0
 20
0.0
 30
0.0
  9
$PUCSORGLEFT
 10
0.0
 20
0.0
 30
0.0
  9
$PUCSORGRIGHT
 10
0.0
 20
0.0
 30
0.0
  9
$PUCSORGFRONT
 10
0.0
 20
0.0
 30
0.0
  9
$PUCSORGBACK
 10
0.0
 20
0.0
 30
0.0
  9
$USERI1
 70
     0
  9
$USERI2
 70
     0
  9
$USERI3
 70
     0
  9
$USERI4
 70
     0
  9
$USERI5
 70
     0
  9
$USERR1
 40
0.0
  9
$USERR2
 40
0.0
  9
$USERR3
 40
0.0
  9
$USERR4
 40
0.0
  9
$USERR5
 40
0.0
  9
$WORLDVIEW
 70
     1
  9
$SHADEDGE
 70
     3
  9
$SHADEDIF
 70
    70
  9
$TILEMODE
 70
     1
  9
$MAXACTVP
 70
    64
  9
$PINSBASE
 10
0.0
 20
0.0
 30
0.0
  9
$PLIMCHECK
 70
     0
  9
$PEXTMIN
 10
1.0000000000E+20
 20
1.0000000000E+20
 30
1.0000000000E+20
  9
$PEXTMAX
 10
-1.0000000000E+20
 20
-1.0000000000E+20
 30
-1.0000000000E+20
  9
$PLIMMIN
 10
0.0
 20
0.0
  9
$PLIMMAX
 10
420.0
 20
297.0
  9
$UNITMODE
 70
     0
  9
$VISRETAIN
 70
     1
  9
$PLINEGEN
 70
     0
  9
$PSLTSCALE
 70
     1
  9
$TREEDEPTH
 70
  3020
  9
$CMLSTYLE
  2
Standard
  9
$CMLJUST
 70
     0
  9
$CMLSCALE
 40
20.0
  9
$PROXYGRAPHICS
 70
     1
  9
$MEASUREMENT
 70
     1
  9
$CELWEIGHT
370
    -1
  9
$ENDCAPS
280
     0
  9
$JOINSTYLE
280
     0
  9
$LWDISPLAY
290
     1
  9
$INSUNITS
 70
     4
  9
$HYPERLINKBASE
  1

  9
$STYLESHEET
  1

  9
$XEDIT
290
     1
  9
$CEPSNTYPE
380
     0
  9
$PSTYLEMODE
290
     1
  9
$FINGERPRINTGUID
  2
{c97afa0c-0280-4632-b535-7b4becfe47ce}
  9
$VERSIONGUID
  2
{FAEB1C32-E019-11D5-929B-00C0DF256EC4}
  9
$EXTNAMES
290
     1
  9
$PSVPSCALE
 40
0.0
  9
$OLESTARTUP
290
     0
  0
ENDSEC
  0
SECTION
  2
CLASSES
  0
CLASS
  1
ACDBDICTIONARYWDFLT
  2
AcDbDictionaryWithDefault
  3
ObjectDBX Classes
 90
        0
280
     0
281
     0
  0
CLASS
  1
VISUALSTYLE
  2
AcDbVisualStyle
  3
ObjectDBX Classes
 90
     4095
280
     0
281
     0
  0
CLASS
  1
MATERIAL
  2
AcDbMaterial
  3
ObjectDBX Classes
 90
     1153
280
     0
281
     0
  0
CLASS
  1
SCALE
  2
AcDbScale
  3
ObjectDBX Classes
 90
     1153
280
     0
281
     0
  0
CLASS
  1
TABLESTYLE
  2
AcDbTableStyle
  3
ObjectDBX Classes
 90
     4095
280
     0
281
     0
  0
CLASS
  1
MLEADERSTYLE
  2
AcDbMLeaderStyle
  3
ACDB_MLEADERSTYLE_CLASS
 90
     4095
280
     0
281
     0
  0
CLASS
  1
SUN
  2
AcDbSun
  3
SCENEOE
 90
     1153
280
     0
281
     0
  0
CLASS
  1
ACDBPLACEHOLDER
  2
AcDbPlaceHolder
  3
ObjectDBX Classes
 90
        0
280
     0
281
     0
  0
CLASS
  1
LAYOUT
  2
AcDbLayout
  3
ObjectDBX Classes
 90
        0
280
     0
281
     0
  0
ENDSEC
  0
SECTION
  2
TABLES
  0
TABLE
  2
VPORT
  5
8
330
0
100
AcDbSymbolTable
 70
     1
  0
VPORT
  5
29
330
8
100
AcDbSymbolTableRecord
100
AcDbViewportTableRecord
  2
*Active
 70
     0
 10
0.0
 20
0.0
 11
1.0
 21
1.0
 12
139.7
 22
107.95
 13
0.0
 23
0.0
 14
10.0
 24
10.0
 15
10.0
 25
10.0
 16
0.0
 26
0.0
 36
1.0
 17
0.0
 27
0.0
 37
0.0
 40
215.9
 41
1.2941176471
 42
50.0
 43
0.0
 44
0.0
 50
0.0
 51
0.0
 71
     0
 72
  2000
 73
     1
 74
     3
 75
     0
 76
     0
 77
     0
 78
     0
281
     0
 65
     1
110
0.0
120
0.0
130
0.0
111
1.0
121
0.0
131
0.0
112
0.0
122
1.0
132
0.0
 79
     0
146
0.0
  0
ENDTAB
  0
TABLE
  2
LTYPE
  5
5
330
0
100
AcDbSymbolTable
 70
     6
  0
LTYPE
  5
14
330
5
100
AcDbSymbolTableRecord
100
AcDbLinetypeTableRecord
  2
ByBlock
 70
     0
  3

 72
    65
 73
     0
 40
0.0
  0
LTYPE
  5
15
330
5
100
AcDbSymbolTableRecord
100
AcDbLinetypeTableRecord
  2
ByLayer
 70
     0
  3

 72
    65
 73
     0
 40
0.0
  0
LTYPE
  5
16
330
5
100
AcDbSymbolTableRecord
100
AcDbLinetypeTableRecord
  2
Continuous
 70
     0
  3
Solid line
 72
    65
 73
     0
 40
0.0
  0
LTYPE
  5
6E
330
5
100
AcDbSymbolTableRecord
100
AcDbLinetypeTableRecord
  2
HIDDEN
 70
     0
  3
Hidden __ __ __ __ __ __ __ __ __ __ __ __ __ __
 72
    65
 73
     2
 40
1.905
 49
1.27
 74
     0
 49
-0.635
 74
     0
  0
LTYPE
  5
6F
330
5
100
AcDbSymbolTableRecord
100
AcDbLinetypeTableRecord
  2
PHANTOM
 70
     0
  3
Phantom ______  __  __  ______  __  __  ______
 72
    65
 73
     6
 40
12.7
 49
6.35
 74
     0
 49
-1.27
 74
     0
 49
1.27
 74
     0
 49
-1.27
 74
     0
 49
1.27
 74
     0
 49
-1.27
 74
     0
  0
LTYPE
  5
70
330
5
100
AcDbSymbolTableRecord
100
AcDbLinetypeTableRecord
  2
CENTER
 70
     0
  3
Center ____ _ ____ _ ____ _ ____ _ ____ _ ____
 72
    65
 73
     4
 40
10.16
 49
6.35
 74
     0
 49
-1.27
 74
     0
 49
1.27
 74
     0
 49
-1.27
 74
     0
  0
LTYPE
  5
71
330
5
100
AcDbSymbolTableRecord
100
AcDbLinetypeTableRecord
  2
CENTERX2
 70
     0
  3
Center (2x) ________  __  ________  __  _____
 72
    65
 73
     4
 40
20.32
 49
12.7
 74
     0
 49
-2.54
 74
     0
 49
2.54
 74
     0
 49
-2.54
 74
     0
  0
LTYPE
  5
72
330
5
100
AcDbSymbolTableRecord
100
AcDbLinetypeTableRecord
  2
DOT2
 70
     0
  3
Dot (.5x) ........................................
 72
    65
 73
     2
 40
0.635
 49
0.0
 74
     0
 49
-0.635
 74
     0
  0
ENDTAB
  0
TABLE
  2
LAYER
  5
2
330
0
100
AcDbSymbolTable
 70
    17
  0
LAYER
  5
10
330
2
100
AcDbSymbolTableRecord
100
AcDbLayerTableRecord
  2
0
 70
     0
 62
     7
  6
Continuous
370
    -3
390
F
  0
LAYER
  5
73
330
2
100
AcDbSymbolTableRecord
100
AcDbLayerTableRecord
  2
FORMAT
 70
     0
 62
     7
  6
Continuous
370
    -3
390
F
  0
LAYER
  5
74
330
2
100
AcDbSymbolTableRecord
100
AcDbLayerTableRecord
  2
YARDIMCI_GEOMETRI
 70
     0
 62
    -6
  6
Continuous
290
     0
370
    -3
390
F
  0
LAYER
  5
75
330
2
100
AcDbSymbolTableRecord
100
AcDbLayerTableRecord
  2
SAYFA_CERCEVESI
 70
     0
 62
     7
  6
Continuous
370
    25
390
F
  0
LAYER
  5
76
330
2
100
AcDbSymbolTableRecord
100
AcDbLayerTableRecord
  2
ANTET
 70
     0
 62
     7
  6
Continuous
370
    -3
390
F
  0
LAYER
  5
77
330
2
100
AcDbSymbolTableRecord
100
AcDbLayerTableRecord
  2
OLCU
 70
     0
 62
   150
  6
Continuous
370
    -3
390
F
  0
LAYER
  5
78
330
2
100
AcDbSymbolTableRecord
100
AcDbLayerTableRecord
  2
METIN
 70
     0
 62
    96
  6
Continuous
370
    -3
390
F
  0
LAYER
  5
79
330
2
100
AcDbSymbolTableRecord
100
AcDbLayerTableRecord
  2
BALON
 70
     0
 62
     5
  6
Continuous
370
    -3
390
F
  0
LAYER
  5
7A
330
2
100
AcDbSymbolTableRecord
100
AcDbLayerTableRecord
  2
VURGU
 70
     0
 62
     7
  6
Continuous
370
    -3
390
F
  0
LAYER
  5
7B
330
2
100
AcDbSymbolTableRecord
100
AcDbLayerTableRecord
  2
SILIK
 70
     0
 62
     7
  6
Continuous
370
    -3
390
F
  0
LAYER
  5
7C
330
2
100
AcDbSymbolTableRecord
100
AcDbLayerTableRecord
  2
MODEL
 70
     0
 62
     7
  6
Continuous
370
    -3
390
F
  0
LAYER
  5
7D
330
2
100
AcDbSymbolTableRecord
100
AcDbLayerTableRecord
  2
DETAYLANDıRMA
 70
     0
 62
   190
  6
Continuous
370
    -3
390
F
  0
LAYER
  5
7E
330
2
100
AcDbSymbolTableRecord
100
AcDbLayerTableRecord
  2
TOLERANS
 70
     0
 62
   230
  6
Continuous
370
    -3
390
F
  0
LAYER
  5
7F
330
2
100
AcDbSymbolTableRecord
100
AcDbLayerTableRecord
  2
MERKEZ_CIZGILERI
 70
     0
 62
    30
  6
Continuous
370
    -3
390
F
  0
LAYER
  5
80
330
2
100
AcDbSymbolTableRecord
100
AcDbLayerTableRecord
  2
KESIT-DETAY_CIZGILERI
 70
     0
 62
     7
  6
Continuous
370
    -3
390
F
  0
LAYER
  5
81
330
2
100
AcDbSymbolTableRecord
100
AcDbLayerTableRecord
  2
\U+041E\U+0421\U+0415\U+0412\U+042B\U+0415
 70
     0
 62
     7
  6
Continuous
370
    -3
390
F
  0
LAYER
  5
82
330
2
100
AcDbSymbolTableRecord
100
AcDbLayerTableRecord
  2
\U+0412\U+041E\U+0414\U+042F\U+041D\U+042B\U+0415_\U+0417\U+041D\U+0410\U+041A\U+0418
 70
     0
 62
    11
  6
Continuous
370
    -3
390
F
  0
ENDTAB
  0
TABLE
  2
STYLE
  5
3
330
0
100
AcDbSymbolTable
 70
     1
  0
STYLE
  5
11
330
3
100
AcDbSymbolTableRecord
100
AcDbTextStyleTableRecord
  2
Standard
 70
     0
 40
0.0
 41
1.0
 50
0.0
 71
     0
 42
3.5
  3
txt
  4

  0
ENDTAB
  0
TABLE
  2
VIEW
  5
6
330
0
100
AcDbSymbolTable
 70
     0
  0
ENDTAB
  0
TABLE
  2
UCS
  5
7
330
0
100
AcDbSymbolTable
 70
     0
  0
ENDTAB
  0
TABLE
  2
APPID
  5
9
330
0
100
AcDbSymbolTable
 70
     1
  0
APPID
  5
12
330
9
100
AcDbSymbolTableRecord
100
AcDbRegAppTableRecord
  2
ACAD
 70
     0
  0
ENDTAB
  0
TABLE
  2
DIMSTYLE
  5
A
330
0
100
AcDbSymbolTable
 70
     1
100
AcDbDimStyleTable
  0
DIMSTYLE
105
27
330
A
100
AcDbSymbolTableRecord
100
AcDbDimStyleTableRecord
  2
ISO-25
 70
     0
 41
2.5
 42
0.625
 43
3.75
 44
1.25
 73
     0
 74
     0
 77
     1
 78
     8
140
2.5
141
2.5
143
0.0393700787
147
0.625
171
     3
172
     1
178
     0
271
     2
272
     2
274
     3
278
    44
283
     0
284
     8
340
11
  0
ENDTAB
  0
TABLE
  2
BLOCK_RECORD
  5
1
330
0
100
AcDbSymbolTable
 70
     4
  0
BLOCK_RECORD
  5
1F
330
1
100
AcDbSymbolTableRecord
100
AcDbBlockTableRecord
  2
*Model_Space
340
22
  0
BLOCK_RECORD
  5
1B
330
1
100
AcDbSymbolTableRecord
100
AcDbBlockTableRecord
  2
*Paper_Space
340
1E
  0
BLOCK_RECORD
  5
23
330
1
100
AcDbSymbolTableRecord
100
AcDbBlockTableRecord
  2
*Paper_Space0
340
26
  0
BLOCK_RECORD
  5
93
330
1
100
AcDbSymbolTableRecord
100
AcDbBlockTableRecord
  2
SW_CENTERMARKSYMBOL_0
340
0
102
{BLKREFS
331
9E
102
}
  0
BLOCK_RECORD
  5
E9
330
1
100
AcDbSymbolTableRecord
100
AcDbBlockTableRecord
  2
SW_CENTERMARKSYMBOL_1
340
0
102
{BLKREFS
331
F4
102
}
  0
BLOCK_RECORD
  5
F5
330
1
100
AcDbSymbolTableRecord
100
AcDbBlockTableRecord
  2
SW_CENTERMARKSYMBOL_2
340
0
102
{BLKREFS
331
100
102
}
  0
ENDTAB
  0
ENDSEC
  0
SECTION
  2
BLOCKS
  0
BLOCK
  5
20
330
1F
100
AcDbEntity
  8
0
100
AcDbBlockBegin
  2
*Model_Space
 70
     0
 10
0.0
 20
0.0
 30
0.0
  3
*Model_Space
  1

  0
ENDBLK
  5
21
330
1F
100
AcDbEntity
  8
0
100
AcDbBlockEnd
  0
BLOCK
  5
1C
330
1B
100
AcDbEntity
 67
     1
  8
0
100
AcDbBlockBegin
  2
*Paper_Space
 70
     0
 10
0.0
 20
0.0
 30
0.0
  3
*Paper_Space
  1

  0
ENDBLK
  5
1D
330
1B
100
AcDbEntity
 67
     1
  8
0
100
AcDbBlockEnd
  0
BLOCK
  5
24
330
23
100
AcDbEntity
  8
0
100
AcDbBlockBegin
  2
*Paper_Space0
 70
     0
 10
0.0
 20
0.0
 30
0.0
  3
*Paper_Space0
  1

  0
ENDBLK
  5
25
330
23
100
AcDbEntity
  8
0
100
AcDbBlockEnd
  0
BLOCK
  5
94
330
93
100
AcDbEntity
  8
0
100
AcDbBlockBegin
  2
SW_CENTERMARKSYMBOL_0
 70
     0
 10
0.0
 20
0.0
 30
0.0
  3
SW_CENTERMARKSYMBOL_0
  1

  0
LINE
  5
96
330
93
100
AcDbEntity
  8
FORMAT
 62
     0
100
AcDbLine
 10
0.0
 20
0.0
 30
0.0
 11
0.0
 21
2.5
 31
0.0
  0
LINE
  5
97
330
93
100
AcDbEntity
  8
FORMAT
 62
     0
100
AcDbLine
 10
0.0
 20
0.0
 30
0.0
 11
-2.5
 21
0.0
 31
0.0
  0
LINE
  5
98
330
93
100
AcDbEntity
  8
FORMAT
 62
     0
100
AcDbLine
 10
0.0
 20
0.0
 30
0.0
 11
0.0
 21
-2.5
 31
0.0
  0
LINE
  5
99
330
93
100
AcDbEntity
  8
FORMAT
 62
     0
100
AcDbLine
 10
0.0
 20
0.0
 30
0.0
 11
2.5
 21
0.0
 31
0.0
  0
LINE
  5
9A
330
93
100
AcDbEntity
  8
FORMAT
 62
     0
100
AcDbLine
 10
0.0
 20
5.0
 30
0.0
 11
0.0
 21
317.5
 31
0.0
  0
LINE
  5
9B
330
93
100
AcDbEntity
  8
FORMAT
 62
     0
100
AcDbLine
 10
-5.0
 20
0.0
 30
0.0
 11
-317.5
 21
0.0
 31
0.0
  0
LINE
  5
9C
330
93
100
AcDbEntity
  8
FORMAT
 62
     0
100
AcDbLine
 10
0.0
 20
-5.0
 30
0.0
 11
0.0
 21
-317.5
 31
0.0
  0
LINE
  5
9D
330
93
100
AcDbEntity
  8
FORMAT
 62
     0
100
AcDbLine
 10
5.0
 20
0.0
 30
0.0
 11
317.5
 21
0.0
 31
0.0
  0
ENDBLK
  5
95
330
93
100
AcDbEntity
  8
0
100
AcDbBlockEnd
  0
BLOCK
  5
EA
330
E9
100
AcDbEntity
  8
0
100
AcDbBlockBegin
  2
SW_CENTERMARKSYMBOL_1
 70
     0
 10
0.0
 20
0.0
 30
0.0
  3
SW_CENTERMARKSYMBOL_1
  1

  0
LINE
  5
EC
330
E9
100
AcDbEntity
  8
FORMAT
 62
     0
100
AcDbLine
 10
0.0
 20
0.0
 30
0.0
 11
0.0
 21
2.5
 31
0.0
  0
LINE
  5
ED
330
E9
100
AcDbEntity
  8
FORMAT
 62
     0
100
AcDbLine
 10
0.0
 20
0.0
 30
0.0
 11
-2.5
 21
0.0
 31
0.0
  0
LINE
  5
EE
330
E9
100
AcDbEntity
  8
FORMAT
 62
     0
100
AcDbLine
 10
0.0
 20
0.0
 30
0.0
 11
0.0
 21
-2.5
 31
0.0
  0
LINE
  5
EF
330
E9
100
AcDbEntity
  8
FORMAT
 62
     0
100
AcDbLine
 10
0.0
 20
0.0
 30
0.0
 11
2.5
 21
0.0
 31
0.0
  0
LINE
  5
F0
330
E9
100
AcDbEntity
  8
FORMAT
 62
     0
100
AcDbLine
 10
0.0
 20
5.0
 30
0.0
 11
0.0
 21
9.5
 31
0.0
  0
LINE
  5
F1
330
E9
100
AcDbEntity
  8
FORMAT
 62
     0
100
AcDbLine
 10
-5.0
 20
0.0
 30
0.0
 11
-9.5
 21
0.0
 31
0.0
  0
LINE
  5
F2
330
E9
100
AcDbEntity
  8
FORMAT
 62
     0
100
AcDbLine
 10
0.0
 20
-5.0
 30
0.0
 11
0.0
 21
-9.5
 31
0.0
  0
LINE
  5
F3
330
E9
100
AcDbEntity
  8
FORMAT
 62
     0
100
AcDbLine
 10
5.0
 20
0.0
 30
0.0
 11
9.5
 21
0.0
 31
0.0
  0
ENDBLK
  5
EB
330
E9
100
AcDbEntity
  8
0
100
AcDbBlockEnd
  0
BLOCK
  5
F6
330
F5
100
AcDbEntity
  8
0
100
AcDbBlockBegin
  2
SW_CENTERMARKSYMBOL_2
 70
     0
 10
0.0
 20
0.0
 30
0.0
  3
SW_CENTERMARKSYMBOL_2
  1

  0
LINE
  5
F8
330
F5
100
AcDbEntity
  8
FORMAT
 62
     0
100
AcDbLine
 10
0.0
 20
0.0
 30
0.0
 11
0.0
 21
2.5
 31
0.0
  0
LINE
  5
F9
330
F5
100
AcDbEntity
  8
FORMAT
 62
     0
100
AcDbLine
 10
0.0
 20
0.0
 30
0.0
 11
-2.5
 21
0.0
 31
0.0
  0
LINE
  5
FA
330
F5
100
AcDbEntity
  8
FORMAT
 62
     0
100
AcDbLine
 10
0.0
 20
0.0
 30
0.0
 11
0.0
 21
-2.5
 31
0.0
  0
LINE
  5
FB
330
F5
100
AcDbEntity
  8
FORMAT
 62
     0
100
AcDbLine
 10
0.0
 20
0.0
 30
0.0
 11
2.5
 21
0.0
 31
0.0
  0
LINE
  5
FC
330
F5
100
AcDbEntity
  8
FORMAT
 62
     0
100
AcDbLine
 10
0.0
 20
5.0
 30
0.0
 11
0.0
 21
9.5
 31
0.0
  0
LINE
  5
FD
330
F5
100
AcDbEntity
  8
FORMAT
 62
     0
100
AcDbLine
 10
-5.0
 20
0.0
 30
0.0
 11
-9.5
 21
0.0
 31
0.0
  0
LINE
  5
FE
330
F5
100
AcDbEntity
  8
FORMAT
 62
     0
100
AcDbLine
 10
0.0
 20
-5.0
 30
0.0
 11
0.0
 21
-9.5
 31
0.0
  0
LINE
  5
FF
330
F5
100
AcDbEntity
  8
FORMAT
 62
     0
100
AcDbLine
 10
5.0
 20
0.0
 30
0.0
 11
9.5
 21
0.0
 31
0.0
  0
ENDBLK
  5
F7
330
F5
100
AcDbEntity
  8
0
100
AcDbBlockEnd
  0
ENDSEC
  0
SECTION
  2
ENTITIES
  0
LINE
  5
83
330
1F
100
AcDbEntity
  8
0
  6
Continuous
 62
     7
370
    25
100
AcDbLine
 10
106.8725048871
 20
496.7941058016
 30
0.0
 11
106.8725048871
 21
503.6911925461
 31
0.0
  0
LINE
  5
84
330
1F
100
AcDbEntity
  8
0
  6
Continuous
 62
     7
370
    25
100
AcDbLine
 10
92.8725048871
 20
503.6911925461
 30
0.0
 11
92.8725048871
 21
495.5434345158
 31
0.0
  0
LINE
  5
85
330
1F
100
AcDbEntity
  8
0
  6
Continuous
 62
     7
370
    25
100
AcDbLine
 10
176.8725048871
 20
495.5429868679
 30
0.0
 11
176.8725048871
 21
503.6911925461
 31
0.0
  0
LINE
  5
86
330
1F
100
AcDbEntity
  8
0
  6
Continuous
 62
     7
370
    25
100
AcDbLine
 10
162.8725048871
 20
503.6911925461
 30
0.0
 11
162.8725048871
 21
496.7955429335
 31
0.0
  0
CIRCLE
  5
87
330
1F
100
AcDbEntity
  8
0
  6
Continuous
 62
     7
370
    25
100
AcDbCircle
 10
134.8725048871
 20
108.6911925461
 30
0.0
 40
389.0
  0
ARC
  5
88
330
1F
100
AcDbEntity
  8
0
  6
Continuous
 62
     7
370
    25
100
AcDbCircle
 10
134.8725048871
 20
108.6911925461
 30
0.0
 40
390.0000000000006
100
AcDbArc
 50
96.1823042364
 51
180.0
  0
ARC
  5
89
330
1F
100
AcDbEntity
  8
0
  6
Continuous
 62
     7
370
    25
100
AcDbCircle
 10
134.8725048871
 20
108.6911925461
 30
0.0
 40
390.0000000000006
100
AcDbArc
 50
85.8829147545
 51
94.1170852455
  0
ARC
  5
8A
330
1F
100
AcDbEntity
  8
0
  6
Continuous
 62
     7
370
    25
100
AcDbCircle
 10
134.8725048871
 20
108.6911925461
 30
0.0
 40
390.0000000000006
100
AcDbArc
 50
180.0
 51
83.8176957636
  0
SPLINE
  5
8B
330
1F
100
AcDbEntity
  8
0
  6
Continuous
 62
     7
370
    25
100
AcDbSpline
210
0.0
220
0.0
230
1.0
 70
     8
 71
     3
 72
    15
 73
    11
 74
     0
 42
0.00000001
 43
0.00000001
 40
0.0
 40
0.0
 40
0.0
 40
0.0
 40
0.1322835602134808
 40
0.264554999578641
 40
0.3971251110992042
 40
0.5300303210830802
 40
0.6630028136902334
 40
0.7956416640347017
 40
0.9276345418250913
 40
1.0
 40
1.0
 40
1.0
 40
1.0
 10
105.6877364407343
 20
496.6735084858049
 30
0.0
 10
105.1845321807833
 20
496.629393416673
 30
0.0
 10
104.1781697683681
 20
496.541167320575
 30
0.0
 10
102.0081799553004
 20
496.3536465736344
 30
0.0
 10
99.64219747932057
 20
496.1427551686107
 30
0.0
 10
97.28833618631133
 20
495.9259112763328
 30
0.0
 10
95.21863325579393
 20
495.7305438227759
 30
0.0
 10
93.71544716523755
 20
495.5905271064958
 30
0.0
 10
92.91355268501009
 20
495.521900001562
 30
0.0
 10
92.95524409269349
 20
495.5378030702147
 30
0.0
 10
92.97000746314623
 20
495.5434345158029
 30
0.0
  0
SPLINE
  5
8C
330
1F
100
AcDbEntity
  8
0
  6
Continuous
 62
     7
370
    25
100
AcDbSpline
210
0.0
220
0.0
230
1.0
 70
     8
 71
     3
 72
    10
 73
     6
 74
     0
 42
0.00000001
 43
0.00000001
 40
0.0
 40
0.0
 40
0.0
 40
0.0
 40
0.0760762182047819
 40
0.6454128640417364
 40
1.0
 40
1.0
 40
1.0
 40
1.0
 10
106.8268821947263
 20
496.7941058016169
 30
0.0
 10
106.8415263501759
 20
496.794207213352
 30
0.0
 10
106.9657639441733
 20
496.7950675668233
 30
0.0
 10
106.5483731736213
 20
496.7520888866086
 30
0.0
 10
105.9264287428314
 20
496.6953022764378
 30
0.0
 10
105.6877364407343
 20
496.6735084858049
 30
0.0
  0
SPLINE
  5
8D
330
1F
100
AcDbEntity
  8
0
  6
Continuous
 62
     7
370
    25
100
AcDbSpline
210
0.0
220
0.0
230
1.0
 70
     8
 71
     3
 72
    15
 73
    11
 74
     0
 42
0.00000001
 43
0.00000001
 40
0.0
 40
0.0
 40
0.0
 40
0.0
 40
0.1414291083679172
 40
0.2828414713321949
 40
0.4246149353469892
 40
0.5664755004475506
 40
0.7080641827544017
 40
0.8492237261689034
 40
0.9899784344417235
 40
1.0
 40
1.0
 40
1.0
 40
1.0
 10
174.9938157482983
 20
495.6871031242918
 30
0.0
 10
174.3989407296196
 20
495.7430755897115
 30
0.0
 10
173.2092611262939
 20
495.855013893333
 30
0.0
 10
170.8938856522447
 20
496.0707457072457
 30
0.0
 10
168.5004993649714
 20
496.2862780009868
 30
0.0
 10
166.2549132861662
 20
496.4823089126866
 30
0.0
 10
164.4009619606127
 20
496.6418452782277
 30
0.0
 10
163.2541069413275
 20
496.7463511921113
 30
0.0
 10
162.7609294313575
 20
496.7973295456951
 30
0.0
 10
162.8900203181794
 20
496.7956542823254
 30
0.0
 10
162.8986005327741
 20
496.7955429334954
 30
0.0
  0
SPLINE
  5
8E
330
1F
100
AcDbEntity
  8
0
  6
Continuous
 62
     7
370
    25
100
AcDbSpline
210
0.0
220
0.0
230
1.0
 70
     8
 71
     3
 72
    10
 73
     6
 74
     0
 42
0.00000001
 43
0.00000001
 40
0.0
 40
0.0
 40
0.0
 40
0.0
 40
0.2767720769277137
 40
0.7232236875513844
 40
1.0
 40
1.0
 40
1.0
 40
1.0
 10
176.7793051955692
 20
495.5429868679153
 30
0.0
 10
176.7861653054492
 20
495.5377036541887
 30
0.0
 10
176.8040912249259
 20
495.5238982683422
 30
0.0
 10
176.0929942266046
 20
495.5851790574091
 30
0.0
 10
175.2980410256943
 20
495.6588930763945
 30
0.0
 10
174.9938157482983
 20
495.6871031242918
 30
0.0
  0
CIRCLE
  5
8F
330
1F
100
AcDbEntity
  8
0
  6
Continuous
 62
     7
370
    25
100
AcDbCircle
 10
134.8725048871
 20
108.6911925461
 30
0.0
 40
315.0
  0
LINE
  5
90
330
1F
100
AcDbEntity
  8
0
  6
Continuous
 62
     7
370
    25
100
AcDbLine
 10
99.8725048871
 20
503.6911925461
 30
0.0
 11
92.8725048871
 21
503.6911925461
 31
0.0
  0
LINE
  5
91
330
1F
100
AcDbEntity
  8
0
  6
Continuous
 62
     7
370
    25
100
AcDbLine
 10
106.8725048871
 20
503.6911925461
 30
0.0
 11
99.8725048871
 21
503.6911925461
 31
0.0
  0
LINE
  5
92
330
1F
100
AcDbEntity
  8
0
  6
Continuous
 62
     7
370
    25
100
AcDbLine
 10
176.8725048871
 20
503.6911925461
 30
0.0
 11
162.8725048871
 21
503.6911925461
 31
0.0
  0
INSERT
  5
9E
330
1F
100
AcDbEntity
  8
FORMAT
 62
     7
100
AcDbBlockReference
  2
SW_CENTERMARKSYMBOL_0
 10
134.8725048871
 20
108.6911925461
 30
0.0
  0
ARC
  5
9F
330
1F
100
AcDbEntity
  8
0
  6
Continuous
 62
     7
370
    25
100
AcDbCircle
 10
1102.608506389
 20
-20004.9338074543
 30
0.0
 40
20503.62500000036
100
AcDbArc
 50
90.0
 51
90.5127832711
  0
LINE
  5
A0
330
1F
100
AcDbEntity
  8
0
  6
Continuous
 62
     7
370
    25
100
AcDbLine
 10
905.108506389
 20
497.7399667304
 30
0.0
 11
900.108506389
 21
497.6911925461
 31
0.0
  0
ARC
  5
A1
330
1F
100
AcDbEntity
  8
0
  6
Continuous
 62
     7
370
    25
100
AcDbCircle
 10
1102.608506389
 20
20222.3161925464
 30
0.0
 40
20503.62500000036
100
AcDbArc
 50
269.4341203578
 51
270.0
  0
LINE
  5
A2
330
1F
100
AcDbEntity
  8
0
  6
Continuous
 62
     7
370
    25
100
AcDbLine
 10
1102.608506389
 20
-281.3088074539
 30
0.0
 11
1127.608506389
 21
-281.3088074539
 31
0.0
  0
LINE
  5
A3
330
1F
100
AcDbEntity
  8
0
  6
Continuous
 62
     7
370
    25
100
AcDbLine
 10
1127.608506389
 20
498.6911925461
 30
0.0
 11
1102.608506389
 21
498.6911925461
 31
0.0
  0
LINE
  5
A4
330
1F
100
AcDbEntity
  8
0
  6
Continuous
 62
     7
370
    25
100
AcDbLine
 10
1330.108506389
 20
497.6911925461
 30
0.0
 11
1325.108506389
 21
497.7399667304
 31
0.0
  0
ARC
  5
A5
330
1F
100
AcDbEntity
  8
0
  6
Continuous
 62
     7
370
    25
100
AcDbCircle
 10
1127.608506389
 20
-20004.9338074543
 30
0.0
 40
20503.62500000036
100
AcDbArc
 50
89.4872167289
 51
90.0
  0
ARC
  5
A6
330
1F
100
AcDbEntity
  8
0
  6
Continuous
 62
     7
370
    25
100
AcDbCircle
 10
1127.608506389
 20
20222.3161925464
 30
0.0
 40
20503.62500000036
100
AcDbArc
 50
270.0
 51
270.5658796422
  0
LINE
  5
A7
330
1F
100
AcDbEntity
  8
0
  6
Continuous
 62
     7
370
    25
100
AcDbLine
 10
919.108506389
 20
496.2917654659
 30
0.0
 11
919.108506389
 21
503.6911925461
 31
0.0
  0
LINE
  5
A8
330
1F
100
AcDbEntity
  8
0
  6
Continuous
 62
     7
370
    25
100
AcDbLine
 10
905.108506389
 20
503.6911925461
 30
0.0
 11
905.108506389
 21
496.1612535403
 31
0.0
  0
LINE
  5
A9
330
1F
100
AcDbEntity
  8
0
  6
Continuous
 62
     7
370
    25
100
AcDbLine
 10
1325.108506389
 20
496.1617155755
 30
0.0
 11
1325.108506389
 21
503.6911925461
 31
0.0
  0
LINE
  5
AA
330
1F
100
AcDbEntity
  8
0
  6
Continuous
 62
     7
370
    25
100
AcDbLine
 10
1311.108506389
 20
503.6911925461
 30
0.0
 11
1311.108506389
 21
496.2906005093
 31
0.0
  0
LINE
  5
AB
330
1F
100
AcDbEntity
  8
0
  6
Continuous
 62
     7
370
    25
100
AcDbLine
 10
900.108506389
 20
108.6911925461
 30
0.0
 11
900.108506389
 21
497.6911925461
 31
0.0
  0
LINE
  5
AC
330
1F
100
AcDbEntity
  8
0
  6
Continuous
 62
     7
370
    25
100
AcDbLine
 10
900.108506389
 20
-280.3088074539
 30
0.0
 11
900.108506389
 21
108.6911925461
 31
0.0
  0
SPLINE
  5
AD
330
1F
100
AcDbEntity
  8
0
  6
Continuous
 62
     7
370
    25
100
AcDbSpline
210
0.0
220
0.0
230
1.0
 70
     8
 71
     3
 72
    18
 73
    14
 74
     0
 42
0.00000001
 43
0.00000001
 40
0.0
 40
0.0
 40
0.0
 40
0.0
 40
0.0095557663270914
 40
0.117394829755121
 40
0.2254687492203
 40
0.33343769473629
 40
0.4409430693799526
 40
0.5478604177927348
 40
0.654420872815339
 40
0.7610716662407515
 40
0.8681837867391448
 40
0.9758357513949248
 40
1.0
 40
1.0
 40
1.0
 40
1.0
 10
919.0765132275709
 20
496.2917654659006
 30
0.0
 10
919.0869771653106
 20
496.2858224977526
 30
0.0
 10
919.2155290937976
 20
496.2128117406774
 30
0.0
 10
918.7120136236998
 20
496.0496613580789
 30
0.0
 10
917.5476414793436
 20
495.8342731000792
 30
0.0
 10
915.681712074938
 20
495.6553237102803
 30
0.0
 10
913.4365387749491
 20
495.5443034463628
 30
0.0
 10
911.0424640981574
 20
495.5171836515437
 30
0.0
 10
908.7813254628904
 20
495.5765745628368
 30
0.0
 10
906.8754067882663
 20
495.7114166220549
 30
0.0
 10
905.6163564974248
 20
495.8991192850634
 30
0.0
 10
905.0408214862565
 20
496.06020127535
 30
0.0
 10
905.1566781250865
 20
496.1455986818502
 30
0.0
 10
905.177916700782
 20
496.1612535403067
 30
0.0
  0
LINE
  5
AE
330
1F
100
AcDbEntity
  8
0
  6
Continuous
 62
     7
370
    25
100
AcDbLine
 10
1330.108506389
 20
108.6911925461
 30
0.0
 11
1330.108506389
 21
497.6911925461
 31
0.0
  0
LINE
  5
AF
330
1F
100
AcDbEntity
  8
0
  6
Continuous
 62
     7
370
    25
100
AcDbLine
 10
1330.108506389
 20
-280.3088074539
 30
0.0
 11
1330.108506389
 21
108.6911925461
 31
0.0
  0
SPLINE
  5
B0
330
1F
100
AcDbEntity
  8
0
  6
Continuous
 62
     7
370
    25
100
AcDbSpline
210
0.0
220
0.0
230
1.0
 70
     8
 71
     3
 72
    18
 73
    14
 74
     0
 42
0.00000001
 43
0.00000001
 40
0.0
 40
0.0
 40
0.0
 40
0.0
 40
0.0102060106977494
 40
0.1181562547640717
 40
0.2261611481222094
 40
0.3338950456052264
 40
0.4411042616639305
 40
0.5478117841841585
 40
0.6543556064352605
 40
0.7611899035596847
 40
0.8685924896061938
 40
0.9765002828522608
 40
1.0
 40
1.0
 40
1.0
 40
1.0
 10
1325.074495389649
 20
496.161715575535
 30
0.0
 10
1325.085599111486
 20
496.1551572257073
 30
0.0
 10
1325.214148279724
 20
496.0792303943512
 30
0.0
 10
1324.70680071151
 20
495.9249415957492
 30
0.0
 10
1323.536319849705
 20
495.7314450618908
 30
0.0
 10
1321.668556346436
 20
495.5879027551941
 30
0.0
 10
1319.425525527134
 20
495.519413804862
 30
0.0
 10
1317.035407439668
 20
495.5373363692989
 30
0.0
 10
1314.776715377163
 20
495.639067269719
 30
0.0
 10
1312.870756832107
 20
495.8096814640196
 30
0.0
 10
1311.612704478159
 20
496.0212057995721
 30
0.0
 10
1311.038628191131
 20
496.192873260738
 30
0.0
 10
1311.155705641338
 20
496.2757751022367
 30
0.0
 10
1311.176642701602
 20
496.2906005092503
 30
0.0
  0
LINE
  5
B1
330
1F
100
AcDbEntity
  8
0
  6
Continuous
 62
     7
370
    25
100
AcDbLine
 10
919.108506389
 20
503.6911925461
 30
0.0
 11
905.108506389
 21
503.6911925461
 31
0.0
  0
LINE
  5
B2
330
1F
100
AcDbEntity
  8
0
  6
Continuous
 62
     7
370
    25
100
AcDbLine
 10
1325.108506389
 20
503.6911925461
 30
0.0
 11
1311.108506389
 21
503.6911925461
 31
0.0
  0
LINE
  5
B3
330
1F
100
AcDbEntity
  8
0
  6
Continuous
 62
     1
370
    25
100
AcDbLine
 10
1102.608506389
 20
108.6911925461
 30
0.0
 11
1102.608506389
 21
498.6911925461
 31
0.0
  0
LINE
  5
B4
330
1F
100
AcDbEntity
  8
0
  6
Continuous
 62
     1
370
    25
100
AcDbLine
 10
1102.608506389
 20
-281.3088074539
 30
0.0
 11
1102.608506389
 21
108.6911925461
 31
0.0
  0
LINE
  5
B5
330
1F
100
AcDbEntity
  8
0
  6
Continuous
 62
     1
370
    25
100
AcDbLine
 10
1127.608506389
 20
108.6911925461
 30
0.0
 11
1127.608506389
 21
498.6911925461
 31
0.0
  0
LINE
  5
B6
330
1F
100
AcDbEntity
  8
0
  6
Continuous
 62
     1
370
    25
100
AcDbLine
 10
1127.608506389
 20
-281.3088074539
 30
0.0
 11
1127.608506389
 21
108.6911925461
 31
0.0
  0
ARC
  5
B7
330
1F
100
AcDbEntity
  8
0
  6
Continuous
 62
     7
370
    25
100
AcDbCircle
 10
20248.4975048875
 20
991.1603088256
 30
0.0
 40
20503.62500000036
100
AcDbArc
 50
180.0
 51
180.5658796422
  0
ARC
  5
B8
330
1F
100
AcDbEntity
  8
0
  6
Continuous
 62
     7
370
    25
100
AcDbCircle
 10
-19978.7524951132
 20
991.1603088256
 30
0.0
 40
20503.62500000036
100
AcDbArc
 50
359.4341203578
 51
0.0
  0
LINE
  5
B9
330
1F
100
AcDbEntity
  8
0
  6
Continuous
 62
     7
370
    25
100
AcDbLine
 10
524.8725048872
 20
991.1603088256
 30
0.0
 11
524.8725048872
 21
1016.1603088256
 31
0.0
  0
LINE
  5
BA
330
1F
100
AcDbEntity
  8
0
  6
Continuous
 62
     7
370
    25
100
AcDbLine
 10
-255.1274951129
 20
1016.1603088256
 30
0.0
 11
-255.1274951129
 21
991.1603088256
 31
0.0
  0
ARC
  5
BB
330
1F
100
AcDbEntity
  8
0
  6
Continuous
 62
     7
370
    25
100
AcDbCircle
 10
20248.4975048875
 20
1016.1603088256
 30
0.0
 40
20503.62500000036
100
AcDbArc
 50
179.4341203578
 51
180.0
  0
ARC
  5
BC
330
1F
100
AcDbEntity
  8
0
  6
Continuous
 62
     7
370
    25
100
AcDbCircle
 10
-19978.7524951132
 20
1016.1603088256
 30
0.0
 40
20503.62500000036
100
AcDbArc
 50
0.0
 51
0.5658796422
  0
LINE
  5
BD
330
1F
100
AcDbEntity
  8
0
  6
Continuous
 62
     7
370
    25
100
AcDbLine
 10
523.8725048871
 20
788.6603088256
 30
0.0
 11
-254.1274951128
 21
788.6603088256
 31
0.0
  0
LINE
  5
BE
330
1F
100
AcDbEntity
  8
0
  6
Continuous
 62
     7
370
    25
100
AcDbLine
 10
523.8725048871
 20
1218.6603088256
 30
0.0
 11
-254.1274951129
 21
1218.6603088256
 31
0.0
  0
LINE
  5
BF
330
1F
100
AcDbEntity
  8
0
  6
Continuous
 62
     1
370
    25
100
AcDbLine
 10
524.8725048872
 20
991.1603088256
 30
0.0
 11
-255.1274951129
 21
991.1603088256
 31
0.0
  0
LINE
  5
C0
330
1F
100
AcDbEntity
  8
0
  6
Continuous
 62
     1
370
    25
100
AcDbLine
 10
524.8725048872
 20
1016.1603088256
 30
0.0
 11
-255.1274951129
 21
1016.1603088256
 31
0.0
  0
ARC
  5
C1
330
1F
100
AcDbEntity
  8
0
  6
Continuous
 62
     7
370
    25
100
AcDbCircle
 10
-824.364159556
 20
20222.3161925464
 30
0.0
 40
20503.62500000036
100
AcDbArc
 50
270.0
 51
270.5658796422
  0
LINE
  5
C2
330
1F
100
AcDbEntity
  8
0
  6
Continuous
 62
     7
370
    25
100
AcDbLine
 10
-621.864159556
 20
497.6911925461
 30
0.0
 11
-626.864159556
 21
497.7399667304
 31
0.0
  0
ARC
  5
C3
330
1F
100
AcDbEntity
  8
0
  6
Continuous
 62
     7
370
    25
100
AcDbCircle
 10
-824.364159556
 20
-20004.9338074543
 30
0.0
 40
20503.62500000036
100
AcDbArc
 50
89.4872167289
 51
90.0
  0
LINE
  5
C4
330
1F
100
AcDbEntity
  8
0
  6
Continuous
 62
     7
370
    25
100
AcDbLine
 10
-824.364159556
 20
498.6911925461
 30
0.0
 11
-849.364159556
 21
498.6911925461
 31
0.0
  0
LINE
  5
C5
330
1F
100
AcDbEntity
  8
0
  6
Continuous
 62
     7
370
    25
100
AcDbLine
 10
-849.364159556
 20
-281.3088074539
 30
0.0
 11
-824.364159556
 21
-281.3088074539
 31
0.0
  0
ARC
  5
C6
330
1F
100
AcDbEntity
  8
0
  6
Continuous
 62
     7
370
    25
100
AcDbCircle
 10
-849.364159556
 20
20222.3161925464
 30
0.0
 40
20503.62500000036
100
AcDbArc
 50
269.4341203578
 51
270.0
  0
ARC
  5
C7
330
1F
100
AcDbEntity
  8
0
  6
Continuous
 62
     7
370
    25
100
AcDbCircle
 10
-849.364159556
 20
-20004.9338074543
 30
0.0
 40
20503.62500000036
100
AcDbArc
 50
90.0
 51
90.5127832711
  0
LINE
  5
C8
330
1F
100
AcDbEntity
  8
0
  6
Continuous
 62
     7
370
    25
100
AcDbLine
 10
-1046.864159556
 20
497.7399667304
 30
0.0
 11
-1051.864159556
 21
497.6911925461
 31
0.0
  0
LINE
  5
C9
330
1F
100
AcDbEntity
  8
0
  6
Continuous
 62
     7
370
    25
100
AcDbLine
 10
-626.864159556
 20
496.1612384999
 30
0.0
 11
-626.864159556
 21
503.6911925461
 31
0.0
  0
LINE
  5
CA
330
1F
100
AcDbEntity
  8
0
  6
Continuous
 62
     7
370
    25
100
AcDbLine
 10
-640.864159556
 20
503.6911925461
 30
0.0
 11
-640.864159556
 21
496.2901847295
 31
0.0
  0
LINE
  5
CB
330
1F
100
AcDbEntity
  8
0
  6
Continuous
 62
     7
370
    25
100
AcDbLine
 10
-1032.864159556
 20
496.2904095426
 30
0.0
 11
-1032.864159556
 21
503.6911925461
 31
0.0
  0
LINE
  5
CC
330
1F
100
AcDbEntity
  8
0
  6
Continuous
 62
     7
370
    25
100
AcDbLine
 10
-1046.864159556
 20
503.6911925461
 30
0.0
 11
-1046.864159556
 21
496.1613772376
 31
0.0
  0
LINE
  5
CD
330
1F
100
AcDbEntity
  8
0
  6
Continuous
 62
     7
370
    25
100
AcDbLine
 10
-621.864159556
 20
497.6911925461
 30
0.0
 11
-621.864159556
 21
-280.3088074539
 31
0.0
  0
SPLINE
  5
CE
330
1F
100
AcDbEntity
  8
0
  6
Continuous
 62
     7
370
    25
100
AcDbSpline
210
0.0
220
0.0
230
1.0
 70
     8
 71
     3
 72
    10
 73
     6
 74
     0
 42
0.00000001
 43
0.00000001
 40
0.0
 40
0.0
 40
0.0
 40
0.0
 40
0.4083162778492095
 40
0.8165966265469464
 40
1.0
 40
1.0
 40
1.0
 40
1.0
 10
-638.594197210658
 20
495.7718502290866
 30
0.0
 10
-639.1151815507607
 20
495.8370943397179
 30
0.0
 10
-640.1571043877647
 20
495.9675768199276
 30
0.0
 10
-640.8563247732503
 20
496.1577475576777
 30
0.0
 10
-640.7865696243398
 20
496.2588470588841
 30
0.0
 10
-640.7649477186714
 20
496.2901847294698
 30
0.0
  0
SPLINE
  5
CF
330
1F
100
AcDbEntity
  8
0
  6
Continuous
 62
     7
370
    25
100
AcDbSpline
210
0.0
220
0.0
230
1.0
 70
     8
 71
     3
 72
    15
 73
    11
 74
     0
 42
0.00000001
 43
0.00000001
 40
0.0
 40
0.0
 40
0.0
 40
0.0
 40
0.035006754173775
 40
0.1817205899527911
 40
0.3284498233671306
 40
0.4747475935276648
 40
0.6203089068587022
 40
0.7652316111778389
 40
0.9100207483667248
 40
1.0
 40
1.0
 40
1.0
 40
1.0
 10
-626.9365400501101
 20
496.1612384998765
 30
0.0
 10
-626.9146553931153
 20
496.1445308573418
 30
0.0
 10
-626.8010518079244
 20
496.0578012324515
 30
0.0
 10
-627.3888248185174
 20
495.8950595967287
 30
0.0
 10
-628.6733056334416
 20
495.7068385449546
 30
0.0
 10
-630.6088818609342
 20
495.5730010200064
 30
0.0
 10
-632.891731637126
 20
495.5164534424614
 30
0.0
 10
-635.2718198909743
 20
495.5474758032485
 30
0.0
 10
-637.2349063583822
 20
495.6444370114386
 30
0.0
 10
-638.2175725384411
 20
495.7365472906076
 30
0.0
 10
-638.594197210658
 20
495.7718502290866
 30
0.0
  0
LINE
  5
D0
330
1F
100
AcDbEntity
  8
0
  6
Continuous
 62
     7
370
    25
100
AcDbLine
 10
-1051.864159556
 20
497.6911925461
 30
0.0
 11
-1051.864159556
 21
-280.3088074539
 31
0.0
  0
SPLINE
  5
D1
330
1F
100
AcDbEntity
  8
0
  6
Continuous
 62
     7
370
    25
100
AcDbSpline
210
0.0
220
0.0
230
1.0
 70
     8
 71
     3
 72
    10
 73
     6
 74
     0
 42
0.00000001
 43
0.00000001
 40
0.0
 40
0.0
 40
0.0
 40
0.0
 40
0.4117492029170728
 40
0.8234496541543869
 40
1.0
 40
1.0
 40
1.0
 40
1.0
 10
-1044.636179575195
 20
495.6871031242908
 30
0.0
 10
-1045.151475901718
 20
495.7429689502048
 30
0.0
 10
-1046.182007542959
 20
495.8546939874415
 30
0.0
 10
-1046.863588186814
 20
496.0305007197625
 30
0.0
 10
-1046.788714763566
 20
496.131165077597
 30
0.0
 10
-1046.766243176899
 20
496.1613772375774
 30
0.0
  0
SPLINE
  5
D2
330
1F
100
AcDbEntity
  8
0
  6
Continuous
 62
     7
370
    25
100
AcDbSpline
210
0.0
220
0.0
230
1.0
 70
     8
 71
     3
 72
    15
 73
    11
 74
     0
 42
0.00000001
 43
0.00000001
 40
0.0
 40
0.0
 40
0.0
 40
0.0
 40
0.0378881606847374
 40
0.1839490818483118
 40
0.3302637002868351
 40
0.4763453514068861
 40
0.6217395458526074
 40
0.7663578942100494
 40
0.9105861397074285
 40
1.0
 40
1.0
 40
1.0
 40
1.0
 10
-1032.940501345222
 20
496.2904095426175
 30
0.0
 10
-1032.917818622745
 20
496.272660559198
 30
0.0
 10
-1032.807692770813
 20
496.1864882788668
 30
0.0
 10
-1033.407438399261
 20
496.0115203671128
 30
0.0
 10
-1034.706857943954
 20
495.7998684417666
 30
0.0
 10
-1036.653653874103
 20
495.630929446676
 30
0.0
 10
-1038.945627899845
 20
495.5332869793368
 30
0.0
 10
-1041.328524224067
 20
495.5218673699289
 30
0.0
 10
-1043.286797493205
 20
495.5839745157159
 30
0.0
 10
-1044.262704160321
 20
495.6585596891978
 30
0.0
 10
-1044.636179575195
 20
495.6871031242908
 30
0.0
  0
LINE
  5
D3
330
1F
100
AcDbEntity
  8
0
  6
Continuous
 62
     7
370
    25
100
AcDbLine
 10
-626.864159556
 20
503.6911925461
 30
0.0
 11
-640.864159556
 21
503.6911925461
 31
0.0
  0
LINE
  5
D4
330
1F
100
AcDbEntity
  8
0
  6
Continuous
 62
     7
370
    25
100
AcDbLine
 10
-1032.864159556
 20
503.6911925461
 30
0.0
 11
-1046.864159556
 21
503.6911925461
 31
0.0
  0
LINE
  5
D5
330
1F
100
AcDbEntity
  8
0
  6
Continuous
 62
     1
370
    25
100
AcDbLine
 10
-824.364159556
 20
498.6911925461
 30
0.0
 11
-824.364159556
 21
-281.3088074539
 31
0.0
  0
LINE
  5
D6
330
1F
100
AcDbEntity
  8
0
  6
Continuous
 62
     1
370
    25
100
AcDbLine
 10
-849.364159556
 20
498.6911925461
 30
0.0
 11
-849.364159556
 21
-281.3088074539
 31
0.0
  0
ARC
  5
D7
330
1F
100
AcDbEntity
  8
0
  6
Continuous
 62
     7
370
    25
100
AcDbCircle
 10
-19978.7524951132
 20
-929.9028016039
 30
0.0
 40
20503.62500000036
100
AcDbArc
 50
0.0
 51
0.5658796422
  0
ARC
  5
D8
330
1F
100
AcDbEntity
  8
0
  6
Continuous
 62
     7
370
    25
100
AcDbCircle
 10
20248.4975048875
 20
-929.9028016039
 30
0.0
 40
20503.62500000036
100
AcDbArc
 50
179.4341203578
 51
180.0
  0
LINE
  5
D9
330
1F
100
AcDbEntity
  8
0
  6
Continuous
 62
     7
370
    25
100
AcDbLine
 10
-255.1274951129
 20
-929.9028016039
 30
0.0
 11
-255.1274951129
 21
-954.9028016039
 31
0.0
  0
LINE
  5
DA
330
1F
100
AcDbEntity
  8
0
  6
Continuous
 62
     7
370
    25
100
AcDbLine
 10
524.8725048872
 20
-954.9028016039
 30
0.0
 11
524.8725048872
 21
-929.9028016039
 31
0.0
  0
ARC
  5
DB
330
1F
100
AcDbEntity
  8
0
  6
Continuous
 62
     7
370
    25
100
AcDbCircle
 10
-19978.7524951132
 20
-954.9028016039
 30
0.0
 40
20503.62500000036
100
AcDbArc
 50
359.4341203578
 51
0.0
  0
ARC
  5
DC
330
1F
100
AcDbEntity
  8
0
  6
Continuous
 62
     7
370
    25
100
AcDbCircle
 10
20248.4975048875
 20
-954.9028016039
 30
0.0
 40
20503.62500000036
100
AcDbArc
 50
180.0
 51
180.5658796422
  0
CIRCLE
  5
DD
330
1F
100
AcDbEntity
  8
0
  6
Continuous
 62
     7
370
    25
100
AcDbCircle
 10
169.8725048871
 20
-739.4028016039
 30
0.0
 40
7.0
  0
CIRCLE
  5
DE
330
1F
100
AcDbEntity
  8
0
  6
Continuous
 62
     7
370
    25
100
AcDbCircle
 10
169.8725048871
 20
-739.4028016039
 30
0.0
 40
5.0
  0
CIRCLE
  5
DF
330
1F
100
AcDbEntity
  8
0
  6
Continuous
 62
     7
370
    25
100
AcDbCircle
 10
99.8725048871
 20
-739.4028016039
 30
0.0
 40
5.0
  0
CIRCLE
  5
E0
330
1F
100
AcDbEntity
  8
0
  6
Continuous
 62
     7
370
    25
100
AcDbCircle
 10
99.8725048871
 20
-739.4028016039
 30
0.0
 40
7.0
  0
CIRCLE
  5
E1
330
1F
100
AcDbEntity
  8
0
  6
Continuous
 62
     7
370
    25
100
AcDbCircle
 10
169.8725048871
 20
-1145.4028016039
 30
0.0
 40
7.0
  0
CIRCLE
  5
E2
330
1F
100
AcDbEntity
  8
0
  6
Continuous
 62
     7
370
    25
100
AcDbCircle
 10
169.8725048871
 20
-1145.4028016039
 30
0.0
 40
5.0
  0
CIRCLE
  5
E3
330
1F
100
AcDbEntity
  8
0
  6
Continuous
 62
     7
370
    25
100
AcDbCircle
 10
99.8725048871
 20
-1145.4028016039
 30
0.0
 40
5.0
  0
CIRCLE
  5
E4
330
1F
100
AcDbEntity
  8
0
  6
Continuous
 62
     7
370
    25
100
AcDbCircle
 10
99.8725048871
 20
-1145.4028016039
 30
0.0
 40
7.0
  0
LINE
  5
E5
330
1F
100
AcDbEntity
  8
0
  6
Continuous
 62
     7
370
    25
100
AcDbLine
 10
-254.1274951128
 20
-727.4028016039
 30
0.0
 11
523.8725048871
 21
-727.4028016039
 31
0.0
  0
LINE
  5
E6
330
1F
100
AcDbEntity
  8
0
  6
Continuous
 62
     7
370
    25
100
AcDbLine
 10
-254.1274951129
 20
-1157.4028016039
 30
0.0
 11
523.8725048871
 21
-1157.4028016039
 31
0.0
  0
LINE
  5
E7
330
1F
100
AcDbEntity
  8
0
  6
Continuous
 62
     1
370
    25
100
AcDbLine
 10
-255.1274951129
 20
-929.9028016039
 30
0.0
 11
524.8725048872
 21
-929.9028016039
 31
0.0
  0
LINE
  5
E8
330
1F
100
AcDbEntity
  8
0
  6
Continuous
 62
     1
370
    25
100
AcDbLine
 10
-255.1274951129
 20
-954.9028016039
 30
0.0
 11
524.8725048872
 21
-954.9028016039
 31
0.0
  0
INSERT
  5
F4
330
1F
100
AcDbEntity
  8
FORMAT
 62
     7
100
AcDbBlockReference
  2
SW_CENTERMARKSYMBOL_1
 10
134.8725048871
 20
-909.4028016039
 30
0.0
  0
INSERT
  5
100
330
1F
100
AcDbEntity
  8
FORMAT
 62
     7
100
AcDbBlockReference
  2
SW_CENTERMARKSYMBOL_2
 10
134.8725048871
 20
-975.4028016039
 30
0.0
  0
SPLINE
  5
101
330
1F
100
AcDbEntity
  8
0
  6
Continuous
 62
     7
370
    25
100
AcDbSpline
210
0.0
220
0.0
230
1.0
 70
     8
 71
     3
 72
    11
 73
     7
 74
     0
 42
0.00000001
 43
0.00000001
 40
0.0
 40
0.0
 40
0.0
 40
0.0
 40
0.2019186979629446
 40
0.5974462861408018
 40
0.9929558055600749
 40
1.0
 40
1.0
 40
1.0
 40
1.0
 10
932.524694608978
 20
-555.7913110661443
 30
0.0
 10
922.7913172110474
 20
-561.4010201515429
 30
0.0
 10
893.991754631322
 20
-577.9992841717316
 30
0.0
 10
846.3152913158734
 20
-605.909027230207
 30
0.0
 10
808.0316111339157
 20
-628.4028747055971
 30
0.0
 10
788.7997884255199
 20
-639.8786418216607
 30
0.0
 10
788.4632552029262
 20
-640.0794536192665
 30
0.0
  0
SPLINE
  5
102
330
1F
100
AcDbEntity
  8
0
  6
Continuous
 62
     7
370
    25
100
AcDbSpline
210
0.0
220
0.0
230
1.0
 70
     8
 71
     3
 72
    11
 73
     7
 74
     0
 42
0.00000001
 43
0.00000001
 40
0.0
 40
0.0
 40
0.0
 40
0.0
 40
0.0152882767247001
 40
0.4108362647575735
 40
0.806380584657651
 40
1.0
 40
1.0
 40
1.0
 40
1.0
 10
1177.416587483758
 20
-1313.842258222992
 30
0.0
 10
1178.159245382748
 20
-1313.427661041254
 30
0.0
 10
1198.116419281937
 20
-1302.286342723217
 30
0.0
 10
1237.141561365467
 20
-1280.152531471777
 30
0.0
 10
1284.752341380741
 20
-1253.045285363468
 30
0.0
 10
1313.128245751683
 20
-1236.634278029327
 30
0.0
 10
1322.453541396113
 20
-1231.241058020787
 30
0.0
  0
LINE
  5
103
330
1F
100
AcDbEntity
  8
0
  6
Continuous
 62
     7
370
    25
100
AcDbLine
 10
950.1826379753
 20
-545.5520249078
 30
0.0
 11
932.5049684456
 21
-555.7571263056
 31
0.0
  0
LINE
  5
104
330
1F
100
AcDbEntity
  8
0
  6
Continuous
 62
     7
370
    25
100
AcDbLine
 10
1322.4732741737
 20
-1231.2752389625
 30
0.0
 11
1340.1509437034
 21
-1221.0701375648
 31
0.0
  0
SPLINE
  5
105
330
1F
100
AcDbEntity
  8
0
  6
Continuous
 62
     7
370
    25
100
AcDbSpline
210
0.0
220
0.0
230
1.0
 70
     8
 71
     3
 72
    11
 73
     7
 74
     0
 42
0.00000001
 43
0.00000001
 40
0.0
 40
0.0
 40
0.0
 40
0.0
 40
0.0152849547973612
 40
0.4108342588275832
 40
0.8063798947200523
 40
1.0
 40
1.0
 40
1.0
 40
1.0
 10
1095.238833169615
 20
-462.9852800844918
 30
0.0
 10
1094.496339117305
 20
-463.399785814223
 30
0.0
 10
1074.539329253104
 20
-474.5410130217343
 30
0.0
 10
1035.514350960803
 20
-496.674732720234
 30
0.0
 10
987.9035685401512
 20
-523.7819797371042
 30
0.0
 10
959.5276619815769
 20
-540.1929883754976
 30
0.0
 10
950.202364138644
 20
-545.5862096683595
 30
0.0
  0
SPLINE
  5
106
330
1F
100
AcDbEntity
  8
0
  6
Continuous
 62
     7
370
    25
100
AcDbSpline
210
0.0
220
0.0
230
1.0
 70
     8
 71
     3
 72
    11
 73
     7
 74
     0
 42
0.00000001
 43
0.00000001
 40
0.0
 40
0.0
 40
0.0
 40
0.0
 40
0.2019170510731961
 40
0.5974413236198554
 40
0.992947527573955
 40
0.9999999999999999
 40
0.9999999999999999
 40
0.9999999999999999
 40
0.9999999999999999
 10
1340.131210925777
 20
-1221.035956623
 30
0.0
 10
1349.864590515562
 20
-1215.426246244085
 30
0.0
 10
1378.664155260132
 20
-1198.827980886653
 30
0.0
 10
1426.340621327173
 20
-1170.918237459768
 30
0.0
 10
1464.624699884261
 20
-1148.424152436783
 30
0.0
 10
1483.856920363241
 20
-1136.948146773009
 30
0.0
 10
1484.193851878018
 20
-1136.747097290651
 30
0.0
  0
LINE
  5
107
330
1F
100
AcDbEntity
  8
0
  6
Continuous
 62
     7
370
    25
100
AcDbLine
 10
1024.5340168352
 20
-669.4783430827
 30
0.0
 11
1024.5340168352
 21
-663.0325765472
 31
0.0
  0
LINE
  5
108
330
1F
100
AcDbEntity
  8
0
  6
Continuous
 62
     7
370
    25
100
AcDbLine
 10
1010.5340168352
 20
-663.0325765472
 30
0.0
 11
1010.5340168352
 21
-668.8282575545
 31
0.0
  0
LINE
  5
109
330
1F
100
AcDbEntity
  8
0
  6
Continuous
 62
     7
370
    25
100
AcDbLine
 10
975.0365421521
 20
-640.1810167522
 30
0.0
 11
975.0365421521
 21
-634.4582926334
 31
0.0
  0
LINE
  5
10A
330
1F
100
AcDbEntity
  8
0
  6
Continuous
 62
     7
370
    25
100
AcDbLine
 10
961.0365421521
 20
-634.4582926334
 30
0.0
 11
961.0365421521
 21
-640.9764354327
 31
0.0
  0
LINE
  5
10B
330
1F
100
AcDbEntity
  8
0
  6
Continuous
 62
     7
370
    25
100
AcDbLine
 10
1311.6193699969
 20
-503.8223610388
 30
0.0
 11
1311.6193699969
 21
-497.3017298472
 31
0.0
  0
LINE
  5
10C
330
1F
100
AcDbEntity
  8
0
  6
Continuous
 62
     7
370
    25
100
AcDbLine
 10
1297.6193699969
 20
-497.3017298472
 30
0.0
 11
1297.6193699969
 21
-503.0227020222
 31
0.0
  0
LINE
  5
10D
330
1F
100
AcDbEntity
  8
0
  6
Continuous
 62
     7
370
    25
100
AcDbLine
 10
1262.1218953139
 20
-474.5244167188
 30
0.0
 11
1262.1218953139
 21
-468.7274459334
 31
0.0
  0
LINE
  5
10E
330
1F
100
AcDbEntity
  8
0
  6
Continuous
 62
     7
370
    25
100
AcDbLine
 10
1248.1218953139
 20
-468.7274459334
 30
0.0
 11
1248.1218953139
 21
-475.1706790789
 31
0.0
  0
LWPOLYLINE
  5
10F
330
1F
100
AcDbEntity
  8
0
  6
Continuous
 62
     7
370
    25
100
AcDbPolyline
 90
      210
 70
   128
 43
0.0
 10
709.2354602378
 20
-817.3861262066
 10
709.3597510606
 20
-807.9102460341
 10
709.7325112046
 20
-798.5864325445
 10
710.3534037986
 20
-789.4231118655
 10
711.2218677288
 20
-780.4285650838
 10
712.3371181461
 20
-771.6109207618
 10
713.6981471749
 20
-762.9781475913
 10
715.3037248246
 20
-754.5380471922
 10
717.1524001006
 20
-746.298247062
 10
719.2425023159
 20
-738.2661936822
 10
721.572142601
 20
-730.4491457898
 10
724.1392156106
 20
-722.8541678162
 10
726.9414014265
 20
-715.4881235038
 10
729.976167654
 20
-708.3576697029
 10
733.2407717106
 20
-701.4692503555
 10
736.7322633047
 20
-694.8290906719
 10
740.4474871012
 20
-688.4431915051
 10
744.3830855739
 20
-682.3173239272
 10
748.535502039
 20
-676.4570240144
 10
752.90098387
 20
-670.867587844
 10
757.4755858884
 20
-665.5540667075
 10
762.2551739296
 20
-660.5212625467
 10
767.2354285787
 20
-655.773723613
 10
772.4118490741
 20
-651.3157403581
 10
777.7797573751
 20
-647.1513415556
 10
783.3343023894
 20
-643.2842906609
 10
789.0704643569
 20
-639.7180824099
 10
794.9830593868
 20
-636.4559396603
 10
801.0667441417
 20
-633.5008104796
 10
807.3160206669
 20
-630.8553654807
 10
813.7252413589
 20
-628.5219954082
 10
820.2886140694
 20
-626.502808978
 10
827.0002073395
 20
-624.7996309716
 10
833.8539557603
 20
-623.414000587
 10
840.8436654542
 20
-622.3471700478
 10
847.9630196726
 20
-621.6001034712
 10
855.2055845045
 20
-621.1734759973
 10
862.5648146907
 20
-621.0676731782
 10
870.034059539
 20
-621.2827906302
 10
877.6065689348
 20
-621.818633947
 10
885.2754994411
 20
-622.6747188759
 10
893.033920483
 20
-623.8502717546
 10
900.8748206112
 20
-625.3442302112
 10
908.7911138382
 20
-627.1552441238
 10
916.7756460424
 20
-629.2816768407
 10
924.8212014329
 20
-631.7216066597
 10
932.920509071
 20
-634.4728285647
 10
941.066249441
 20
-637.532856218
 10
949.2510610649
 20
-640.898924208
 10
957.4675471551
 20
-644.5679905478
 10
965.7082822992
 20
-648.5367394243
 10
973.9658191705
 20
-652.8015841954
 10
982.232695258
 20
-657.3586706303
 10
990.5014396109
 20
-662.2038803938
 10
998.7645795898
 20
-667.3328347672
 10
1007.0146476203
 20
-672.7408986057
 10
1015.2441879412
 20
-678.4231845277
 10
1023.4457633427
 20
-684.3745573311
 10
1031.6119618876
 20
-690.5896386343
 10
1039.7354036093
 20
-697.0628117368
 10
1047.8087471815
 20
-703.7882266949
 10
1055.8246965529
 20
-710.7598056089
 10
1063.7760075403
 20
-717.9712481153
 10
1071.6554943756
 20
-725.4160370808
 10
1079.4560361997
 20
-733.0874444922
 10
1087.170583498
 20
-740.978537536
 10
1094.7921644707
 20
-749.0821848645
 10
1102.3138913338
 20
-757.3910630401
 10
1109.7289665434
 20
-765.8976631536
 10
1117.0306889391
 20
-774.5942976105
 10
1124.2124597999
 20
-783.4731070781
 10
1131.2677888073
 20
-792.5260675884
 10
1138.1902999113
 20
-801.7449977893
 10
1144.973737092
 20
-811.1215663384
 10
1151.6119700136
 20
-820.6472994323
 10
1158.0989995645
 20
-830.3135884643
 10
1164.4289632788
 20
-840.1116978044
 10
1170.5961406343
 20
-850.0327726938
 10
1176.5949582223
 20
-860.0678472471
 10
1182.4199947843
 20
-870.207852555
 10
1188.0659861114
 20
-880.44362488
 10
1193.5278298019
 20
-890.7659139381
 10
1198.8005898719
 20
-901.165391258
 10
1203.8795012165
 20
-911.6326586121
 10
1208.7599739161
 20
-922.1582565092
 10
1213.4375973842
 20
-932.7326727437
 10
1217.9081443534
 20
-943.3463509919
 10
1222.1675746958
 20
-953.9896994479
 10
1226.212039074
 20
-964.6530994926
 10
1230.03788242
 20
-975.3269143855
 10
1233.6416472381
 20
-986.0014979742
 10
1237.0200767298
 20
-996.6672034116
 10
1240.1701177368
 20
-1007.3143918738
 10
1243.0889235004
 20
-1017.9334412713
 10
1245.7738562341
 20
-1028.5147549444
 10
1248.2224895073
 20
-1039.0487703359
 10
1250.4326104382
 20
-1049.525967633
 10
1252.4022216939
 20
-1059.9368783709
 10
1254.1295432949
 20
-1070.2720939891
 10
1255.6130142241
 20
-1080.5222743345
 10
1256.8512938375
 20
-1090.6781561021
 10
1257.8432630755
 20
-1100.7305612066
 10
1258.5880254746
 20
-1110.6704050767
 10
1259.0849079772
 20
-1120.4887048651
 10
1259.33346154
 20
-1130.1765875664
 10
1259.33346154
 20
-1139.725298036
 10
1259.0849079772
 20
-1149.126206902
 10
1258.5880254746
 20
-1158.3708183642
 10
1257.8432630755
 20
-1167.4507778715
 10
1256.8512938375
 20
-1176.3578796723
 10
1255.6130142241
 20
-1185.08407423
 10
1254.1295432949
 20
-1193.621475498
 10
1252.4022216939
 20
-1201.9623680461
 10
1250.4326104382
 20
-1210.099214033
 10
1248.2224895073
 20
-1218.0246600189
 10
1245.7738562341
 20
-1225.7315436103
 10
1243.0889235004
 20
-1233.2128999335
 10
1240.1701177368
 20
-1240.4619679284
 10
1237.0200767297
 20
-1247.4721964588
 10
1233.6416472381
 20
-1254.2372502328
 10
1230.0378824199
 20
-1260.751015528
 10
1226.212039074
 20
-1267.0076057169
 10
1222.1675746958
 20
-1273.0013665866
 10
1217.9081443534
 20
-1278.7268814483
 10
1213.4375973842
 20
-1284.1789760332
 10
1208.7599739161
 20
-1289.352723168
 10
1203.8795012165
 20
-1294.2434472278
 10
1198.8005898719
 20
-1298.8467283618
 10
1193.5278298019
 20
-1303.1584064874
 10
1188.0659861114
 20
-1307.1745850498
 10
1182.4199947843
 20
-1310.8916345434
 10
1176.5949582223
 20
-1314.3061957919
 10
1170.5961406343
 20
-1317.4151829841
 10
1164.4289632788
 20
-1320.2157864623
 10
1158.0989995645
 20
-1322.705475262
 10
1151.6119700136
 20
-1324.8819993986
 10
1144.973737092
 20
-1326.7433919013
 10
1138.1902999113
 20
-1328.2879705902
 10
1131.2677888073
 20
-1329.5143395969
 10
1124.2124597999
 20
-1330.4213906257
 10
1117.0306889391
 20
-1331.0083039554
 10
1109.7289665434
 20
-1331.2745491801
 10
1102.3138913337
 20
-1331.2198856882
 10
1094.7921644707
 20
-1330.8443628804
 10
1087.170583498
 20
-1330.1483201245
 10
1079.4560361997
 20
-1329.1323864491
 10
1071.6554943756
 20
-1327.7974799751
 10
1063.7760075403
 20
-1326.1448070855
 10
1055.8246965529
 20
-1324.175861336
 10
1047.8087471815
 20
-1321.8924221043
 10
1039.7354036093
 20
-1319.2965529831
 10
1031.6119618876
 20
-1316.390599914
 10
1023.4457633427
 20
-1313.1771890684
 10
1015.2441879412
 20
-1309.6592244737
 10
1007.0146476203
 20
-1305.8398853889
 10
998.7645795898
 20
-1301.7226234318
 10
990.5014396109
 20
-1297.3111594589
 10
982.232695258
 20
-1292.6094802038
 10
973.9658191705
 20
-1287.6218346735
 10
965.7082822992
 20
-1282.3527303087
 10
957.4675471551
 20
-1276.8069289108
 10
949.2510610649
 20
-1270.9894423378
 10
941.066249441
 20
-1264.9055279754
 10
932.920509071
 20
-1258.5606839859
 10
924.8212014329
 20
-1251.960644339
 10
916.7756460424
 20
-1245.1113736304
 10
908.7911138382
 20
-1238.0190616908
 10
900.8748206111
 20
-1230.6901179929
 10
893.033920483
 20
-1223.1311658581
 10
885.2754994411
 20
-1215.3490364715
 10
877.6065689348
 20
-1207.3507627081
 10
870.034059539
 20
-1199.1435727773
 10
862.5648146907
 20
-1190.7348836903
 10
855.2055845045
 20
-1182.1322945574
 10
847.9630196726
 20
-1173.3435797206
 10
840.8436654542
 20
-1164.3766817275
 10
833.8539557603
 20
-1155.2397041536
 10
827.0002073395
 20
-1145.940904279
 10
820.2886140694
 20
-1136.4886856259
 10
813.7252413589
 20
-1126.8915903645
 10
807.3160206669
 20
-1117.1582915928
 10
801.0667441417
 20
-1107.297585499
 10
794.9830593868
 20
-1097.318383412
 10
789.0704643569
 20
-1087.2297037478
 10
783.3343023894
 20
-1077.04066386
 10
777.7797573751
 20
-1066.7604717994
 10
772.4118490741
 20
-1056.3984179934
 10
767.2354285787
 20
-1045.9638668492
 10
762.2551739296
 20
-1035.4662482916
 10
757.4755858884
 20
-1024.9150492407
 10
752.90098387
 20
-1014.3198050385
 10
748.535502039
 20
-1003.6900908313
 10
744.3830855739
 20
-993.035512917
 10
740.4474871012
 20
-982.3657000632
 10
736.7322633047
 20
-971.6902948055
 10
733.2407717106
 20
-961.0189447338
 10
729.976167654
 20
-950.3612937729
 10
726.9414014265
 20
-939.7269734676
 10
724.1392156106
 20
-929.1255942783
 10
721.572142601
 20
-918.5667368958
 10
719.2425023159
 20
-908.059943583
 10
717.1524001006
 20
-897.6147095514
 10
715.3037248246
 20
-887.2404743802
 10
713.6981471749
 20
-876.9466134852
 10
712.3371181461
 20
-866.7424296465
 10
711.2218677288
 20
-856.6371446009
 10
710.3534037986
 20
-846.6398907086
 10
709.7325112046
 20
-836.7597026994
 10
709.3597510606
 20
-827.0055095085
 10
709.2354602378
 20
-817.3861262066
  0
SPLINE
  5
110
330
1F
100
AcDbEntity
  8
0
  6
Continuous
 62
     7
370
    25
100
AcDbSpline
210
0.0
220
0.0
230
1.0
 70
     8
 71
     3
 72
    13
 73
     9
 74
     0
 42
0.00000001
 43
0.00000001
 40
0.0
 40
0.0
 40
0.0
 40
0.0
 40
0.1910208792814591
 40
0.3820242557448856
 40
0.5734589225186875
 40
0.7653774801327767
 40
0.9573931955935254
 40
1.0
 40
1.0
 40
1.0
 40
1.0
 10
969.3932566974097
 20
-644.1529056501939
 30
0.0
 10
968.6048111631371
 20
-644.2331395464903
 30
0.0
 10
967.0279923381014
 20
-644.3935999874298
 30
0.0
 10
964.7419408357647
 20
-644.0967477594695
 30
0.0
 10
962.8195477068184
 20
-643.4398083085583
 30
0.0
 10
961.5478230417656
 20
-642.4567011571002
 30
0.0
 10
960.9680383016241
 20
-641.58142142418
 30
0.0
 10
961.0844979344639
 20
-641.0725864821958
 30
0.0
 10
961.105646683529
 20
-640.9801834560047
 30
0.0
  0
SPLINE
  5
111
330
1F
100
AcDbEntity
  8
0
  6
Continuous
 62
     7
370
    25
100
AcDbSpline
210
0.0
220
0.0
230
1.0
 70
     8
 71
     3
 72
    12
 73
     8
 74
     0
 42
0.00000001
 43
0.00000001
 40
0.0
 40
0.0
 40
0.0
 40
0.0
 40
0.113868470026179
 40
0.3589134359845845
 40
0.6034325885243877
 40
0.8478037848789577
 40
1.0
 40
1.0
 40
1.0
 40
1.0
 10
974.9372764206638
 20
-640.1817283029143
 30
0.0
 10
974.9587338955985
 20
-640.3767825155378
 30
0.0
 10
975.0263678600711
 20
-640.9915934253519
 30
0.0
 10
974.2910841901725
 20
-642.0358961281507
 30
0.0
 10
972.8543256100131
 20
-643.1184234330689
 30
0.0
 10
971.0928706868082
 20
-643.8290842088243
 30
0.0
 10
969.8646341791089
 20
-644.0630957660054
 30
0.0
 10
969.3932566974097
 20
-644.1529056501939
 30
0.0
  0
SPLINE
  5
112
330
1F
100
AcDbEntity
  8
0
  6
Continuous
 62
     7
370
    25
100
AcDbSpline
210
0.0
220
0.0
230
1.0
 70
     8
 71
     3
 72
    12
 73
     8
 74
     0
 42
0.00000001
 43
0.00000001
 40
0.0
 40
0.0
 40
0.0
 40
0.0
 40
0.2103632457590453
 40
0.4207015842164671
 40
0.6315770284359933
 40
0.842582027789696
 40
1.0
 40
1.0
 40
1.0
 40
1.0
 10
1017.781002758129
 20
-673.6067400139026
 30
0.0
 10
1016.9900790023
 20
-673.5322101666718
 30
0.0
 10
1015.408325137116
 20
-673.3831592966475
 30
0.0
 10
1013.264093041748
 20
-672.5508877131323
 30
0.0
 10
1011.629046413835
 20
-671.3787740365387
 30
0.0
 10
1010.653420489549
 20
-670.0684040034237
 30
0.0
 10
1010.622638913713
 20
-669.1969578874516
 30
0.0
 10
1010.609486711968
 20
-668.8246106369951
 30
0.0
  0
SPLINE
  5
113
330
1F
100
AcDbEntity
  8
0
  6
Continuous
 62
     7
370
    25
100
AcDbSpline
210
0.0
220
0.0
230
1.0
 70
     8
 71
     3
 72
    12
 73
     8
 74
     0
 42
0.00000001
 43
0.00000001
 40
0.0
 40
0.0
 40
0.0
 40
0.0
 40
0.2079784603880874
 40
0.4278854812555963
 40
0.6466190439766117
 40
0.8647625806782571
 40
1.0
 40
1.0
 40
1.0
 40
1.0
 10
1024.511974516381
 20
-669.4764273400677
 30
0.0
 10
1024.452070807049
 20
-669.9520428227135
 30
0.0
 10
1024.328827623844
 20
-670.9305526131254
 30
0.0
 10
1023.175345607774
 20
-672.2069953582799
 30
0.0
 10
1021.433745679356
 20
-673.1482286122072
 30
0.0
 10
1019.519832008357
 20
-673.5933524658988
 30
0.0
 10
1018.262267467578
 20
-673.6030346734274
 30
0.0
 10
1017.781002758129
 20
-673.6067400139027
 30
0.0
  0
LWPOLYLINE
  5
114
330
1F
100
AcDbEntity
  8
0
  6
Continuous
 62
     7
370
    25
100
AcDbPolyline
 90
      189
 70
   128
 43
0.0
 10
761.5613620456
 20
-847.593226344
 10
761.6857473787
 20
-839.0703543451
 10
762.0587644553
 20
-830.7006135564
 10
762.6799966629
 20
-822.4933519119
 10
763.5487501644
 20
-814.4577358764
 10
764.6640546728
 20
-806.6027402091
 10
766.024664535
 20
-798.9371379387
 10
767.6290601234
 20
-791.4694905661
 10
769.4754495326
 20
-784.2081385014
 10
771.5617705809
 20
-777.1611917494
 10
773.8856931136
 20
-770.3365208515
 10
776.4446216055
 20
-763.741748095
 10
779.2356980596
 20
-757.3842390007
 10
782.2558051993
 20
-751.2710940959
 10
785.5015699498
 20
-745.4091409842
 10
788.9693672057
 20
-739.8049267201
 10
792.6553238793
 20
-734.4647104965
 10
796.5553232269
 20
-729.3944566545
 10
800.6650094464
 20
-724.5998280211
 10
804.9797925419
 20
-720.0861795856
 10
809.4948534509
 20
-715.8585525179
 10
814.2051494257
 20
-711.9216685385
 10
819.1054196661
 20
-708.2799246451
 10
824.1901911949
 20
-704.9373882015
 10
829.4537849703
 20
-701.8977923947
 10
834.8903222291
 20
-699.164532066
 10
840.493731052
 20
-696.7406599186
 10
846.2577531455
 20
-694.6288831088
 10
852.1759508318
 20
-692.8315602222
 10
858.2417142383
 20
-691.3506986393
 10
864.4482686804
 20
-690.1879522938
 10
870.788682228
 20
-689.3446198251
 10
877.2558734472
 20
-688.8216431282
 10
883.8426193097
 20
-688.6196063012
 10
890.5415632601
 20
-688.7387349937
 10
897.3452234317
 20
-689.178896154
 10
904.2460010033
 20
-689.9395981782
 10
911.2361886859
 20
-691.0199914592
 10
918.307979331
 20
-692.4188693353
 10
925.4534746496
 20
-694.1346694382
 10
932.6646940344
 20
-696.165475438
 10
939.9335834724
 20
-698.5090191831
 10
947.2520245405
 20
-701.162683234
 10
954.611843473
 20
-704.1235037861
 10
962.0048202902
 20
-707.3881739802
 10
969.4226979792
 20
-710.9530475959
 10
976.8571917163
 20
-714.8141431238
 10
984.2999981194
 20
-718.9671482121
 10
991.7428045225
 20
-723.4074244837
 10
999.1772982596
 20
-728.1300127158
 10
1006.5951759486
 20
-733.1296383794
 10
1013.9881527658
 20
-738.4007175298
 10
1021.3479716983
 20
-743.9373630435
 10
1028.6664127664
 20
-749.7333911932
 10
1035.9353022044
 20
-755.7823285541
 10
1043.1465215892
 20
-762.0774192343
 10
1050.2920169078
 20
-768.6116324198
 10
1057.3638075529
 20
-775.3776702274
 10
1064.3539952355
 20
-782.3679758552
 10
1071.2547728071
 20
-789.5747420228
 10
1078.0584329787
 20
-796.989919691
 10
1084.7573769291
 20
-804.6052270515
 10
1091.3441227916
 20
-812.4121587766
 10
1097.8113140108
 20
-820.4019955187
 10
1104.1517275584
 20
-828.5658136485
 10
1110.3582820005
 20
-836.8944952216
 10
1116.424045407
 20
-845.3787381625
 10
1122.3422430933
 20
-854.009066653
 10
1128.1062651868
 20
-862.7758417164
 10
1133.7096740097
 20
-871.6692719823
 10
1139.1462112685
 20
-880.6794246226
 10
1144.4098050439
 20
-889.7962364453
 10
1149.4945765727
 20
-899.0095251336
 10
1154.3948468131
 20
-908.3090006184
 10
1159.1051427879
 20
-917.6842765708
 10
1163.6202036969
 20
-927.1248820027
 10
1167.9349867925
 20
-936.620272961
 10
1172.0446730119
 20
-946.1598443043
 10
1175.9446723595
 20
-955.7329415474
 10
1179.6306290331
 20
-965.3288727609
 10
1183.098426289
 20
-974.9369205126
 10
1186.3441910395
 20
-984.5463538379
 10
1189.3642981792
 20
-994.1464402246
 10
1192.1553746333
 20
-1003.7264575998
 10
1194.7143031252
 20
-1013.2757063052
 10
1197.0382256579
 20
-1022.7835210471
 10
1199.1245467062
 20
-1032.2392828084
 10
1200.9709361154
 20
-1041.6324307083
 10
1202.5753317038
 20
-1050.952473798
 10
1203.935941566
 20
-1060.1890027772
 10
1205.0512460744
 20
-1069.3317016204
 10
1205.9199995759
 20
-1078.3703590982
 10
1206.5412317835
 20
-1087.2948801825
 10
1206.9142488601
 20
-1096.0952973205
 10
1207.0386341932
 20
-1104.7617815682
 10
1206.9142488601
 20
-1113.2846535672
 10
1206.5412317835
 20
-1121.6543943558
 10
1205.9199995759
 20
-1129.8616560004
 10
1205.0512460744
 20
-1137.8972720358
 10
1203.935941566
 20
-1145.7522677032
 10
1202.5753317038
 20
-1153.4178699735
 10
1200.9709361154
 20
-1160.8855173462
 10
1199.1245467062
 20
-1168.1468694109
 10
1197.0382256579
 20
-1175.1938161628
 10
1194.7143031252
 20
-1182.0184870608
 10
1192.1553746333
 20
-1188.6132598172
 10
1189.3642981792
 20
-1194.9707689115
 10
1186.3441910395
 20
-1201.0839138164
 10
1183.098426289
 20
-1206.9458669281
 10
1179.6306290331
 20
-1212.5500811922
 10
1175.9446723595
 20
-1217.8902974157
 10
1172.0446730119
 20
-1222.9605512578
 10
1167.9349867924
 20
-1227.7551798911
 10
1163.6202036969
 20
-1232.2688283266
 10
1159.1051427879
 20
-1236.4964553944
 10
1154.3948468131
 20
-1240.4333393737
 10
1149.4945765727
 20
-1244.0750832671
 10
1144.4098050439
 20
-1247.4176197108
 10
1139.1462112685
 20
-1250.4572155175
 10
1133.7096740097
 20
-1253.1904758463
 10
1128.1062651868
 20
-1255.6143479937
 10
1122.3422430933
 20
-1257.7261248035
 10
1116.424045407
 20
-1259.5234476901
 10
1110.3582820005
 20
-1261.0043092729
 10
1104.1517275584
 20
-1262.1670556184
 10
1097.8113140108
 20
-1263.0103880871
 10
1091.3441227916
 20
-1263.5333647841
 10
1084.7573769291
 20
-1263.735401611
 10
1078.0584329787
 20
-1263.6162729186
 10
1071.2547728071
 20
-1263.1761117583
 10
1064.3539952355
 20
-1262.415409734
 10
1057.3638075529
 20
-1261.3350164531
 10
1050.2920169078
 20
-1259.936138577
 10
1043.1465215892
 20
-1258.220338474
 10
1035.9353022044
 20
-1256.1895324743
 10
1028.6664127664
 20
-1253.8459887291
 10
1021.3479716983
 20
-1251.1923246782
 10
1013.9881527658
 20
-1248.2315041261
 10
1006.5951759486
 20
-1244.966833932
 10
999.1772982596
 20
-1241.4019603163
 10
991.7428045225
 20
-1237.5408647885
 10
984.2999981194
 20
-1233.3878597001
 10
976.8571917163
 20
-1228.9475834286
 10
969.4226979792
 20
-1224.2249951965
 10
962.0048202902
 20
-1219.2253695329
 10
954.611843473
 20
-1213.9542903824
 10
947.2520245405
 20
-1208.4176448687
 10
939.9335834724
 20
-1202.6216167191
 10
932.6646940344
 20
-1196.5726793581
 10
925.4534746496
 20
-1190.2775886779
 10
918.307979331
 20
-1183.7433754924
 10
911.2361886859
 20
-1176.9773376849
 10
904.2460010033
 20
-1169.9870320571
 10
897.3452234317
 20
-1162.7802658895
 10
890.5415632601
 20
-1155.3650882212
 10
883.8426193097
 20
-1147.7497808607
 10
877.2558734472
 20
-1139.9428491356
 10
870.788682228
 20
-1131.9530123936
 10
864.4482686804
 20
-1123.7891942638
 10
858.2417142383
 20
-1115.4605126906
 10
852.1759508318
 20
-1106.9762697498
 10
846.2577531455
 20
-1098.3459412592
 10
840.493731052
 20
-1089.5791661958
 10
834.8903222291
 20
-1080.68573593
 10
829.4537849703
 20
-1071.6755832897
 10
824.1901911949
 20
-1062.558771467
 10
819.1054196661
 20
-1053.3454827787
 10
814.2051494257
 20
-1044.0460072939
 10
809.4948534509
 20
-1034.6707313414
 10
804.9797925419
 20
-1025.2301259096
 10
800.6650094464
 20
-1015.7347349513
 10
796.5553232269
 20
-1006.1951636079
 10
792.6553238793
 20
-996.6220663648
 10
788.9693672057
 20
-987.0261351514
 10
785.5015699498
 20
-977.4180873996
 10
782.2558051993
 20
-967.8086540743
 10
779.2356980596
 20
-958.2085676876
 10
776.4446216055
 20
-948.6285503124
 10
773.8856931136
 20
-939.0793016071
 10
771.5617705809
 20
-929.5714868651
 10
769.4754495326
 20
-920.1157251039
 10
767.6290601234
 20
-910.7225772039
 10
766.024664535
 20
-901.4025341143
 10
764.6640546728
 20
-892.1660051351
 10
763.5487501644
 20
-883.0233062919
 10
762.6799966629
 20
-873.984648814
 10
762.0587644553
 20
-865.0601277298
 10
761.6857473787
 20
-856.2597105917
 10
761.5613620456
 20
-847.593226344
  0
LWPOLYLINE
  5
115
330
1F
100
AcDbEntity
  8
0
  6
Continuous
 62
     7
370
    25
100
AcDbPolyline
 90
       18
 70
   128
 43
0.0
 10
1177.5254065829
 20
-959.7774417755
 10
1174.8445981382
 20
-956.4252683517
 10
1168.5041845906
 20
-948.2614502219
 10
1162.2976301485
 20
-939.9327686487
 10
1156.231866742
 20
-931.4485257079
 10
1150.3136690557
 20
-922.8181972173
 10
1144.5496469622
 20
-914.051422154
 10
1138.9462381393
 20
-905.1579918881
 10
1133.5097008806
 20
-896.1478392478
 10
1128.2461071051
 20
-887.0310274251
 10
1123.1613355764
 20
-877.8177387368
 10
1118.2610653359
 20
-868.518263252
 10
1113.5507693611
 20
-859.1429872996
 10
1109.0357084522
 20
-849.7023818677
 10
1104.7209253566
 20
-840.2069909094
 10
1100.6112391371
 20
-830.667419566
 10
1096.7112397895
 20
-821.0943223229
 10
1095.1305055661
 20
-817.0498220949
  0
LWPOLYLINE
  5
116
330
1F
100
AcDbEntity
  8
0
  6
Continuous
 62
     7
370
    25
100
AcDbPolyline
 90
       23
 70
   128
 43
0.0
 10
1095.2347358667
 20
-462.9808512812
 10
1099.038975297
 20
-460.9281956184
 10
1105.1226600519
 20
-457.9730664378
 10
1111.3719365771
 20
-455.3276214389
 10
1117.7811572691
 20
-452.9942513663
 10
1124.3445299797
 20
-450.9750649361
 10
1131.0561232497
 20
-449.2718869297
 10
1137.9098716705
 20
-447.8862565451
 10
1144.8995813644
 20
-446.8194260059
 10
1152.0189355829
 20
-446.0723594294
 10
1159.2615004147
 20
-445.6457319554
 10
1166.6207306009
 20
-445.5399291363
 10
1174.0899754492
 20
-445.7550465883
 10
1181.662484845
 20
-446.2908899052
 10
1189.3314153513
 20
-447.146974834
 10
1197.0898363932
 20
-448.3225277127
 10
1204.9307365214
 20
-449.8164861693
 10
1212.8470297484
 20
-451.6275000819
 10
1220.8315619526
 20
-453.7539327988
 10
1228.8771173431
 20
-456.1938626179
 10
1236.9764249812
 20
-458.9450845228
 10
1245.1221653512
 20
-462.0051121761
 10
1252.4307708498
 20
-464.9969946421
  0
ARC
  5
117
330
1F
100
AcDbEntity
  8
0
  6
Continuous
 62
     7
370
    25
100
AcDbCircle
 10
1109.381897465
 20
-793.9232901693
 30
0.0
 40
358.7445046595258
100
AcDbArc
 50
56.9368894947
 51
64.8010560957
  0
LWPOLYLINE
  5
118
330
1F
100
AcDbEntity
  8
0
  6
Continuous
 62
     7
370
    25
100
AcDbPolyline
 90
       77
 70
   128
 43
0.0
 10
1311.6193699969
 20
-497.583125954
 10
1319.3001038514
 20
-502.8954404859
 10
1327.5016792529
 20
-508.8468132892
 10
1335.6678777978
 20
-515.0618945924
 10
1343.7913195195
 20
-521.5350676949
 10
1351.8646630918
 20
-528.260482653
 10
1359.8806124631
 20
-535.232061567
 10
1367.8319234505
 20
-542.4435040734
 10
1375.7114102858
 20
-549.888293039
 10
1383.51195211
 20
-557.5597004503
 10
1391.2264994082
 20
-565.4507934941
 10
1398.8480803809
 20
-573.5544408226
 10
1406.369807244
 20
-581.8633189982
 10
1413.7848824536
 20
-590.3699191117
 10
1421.0866048493
 20
-599.0665535686
 10
1428.2683757101
 20
-607.9453630363
 10
1435.3237047176
 20
-616.9983235465
 10
1442.2462158215
 20
-626.2172537474
 10
1449.0296530022
 20
-635.5938222966
 10
1455.6678859238
 20
-645.1195553904
 10
1462.1549154748
 20
-654.7858444224
 10
1468.4848791891
 20
-664.5839537625
 10
1474.6520565446
 20
-674.5050286519
 10
1480.6508741325
 20
-684.5401032052
 10
1486.4759106945
 20
-694.6801085131
 10
1492.1219020216
 20
-704.9158808381
 10
1497.5837457121
 20
-715.2381698962
 10
1502.8565057821
 20
-725.6376472161
 10
1507.9354171267
 20
-736.1049145702
 10
1512.8158898263
 20
-746.6305124673
 10
1517.4935132944
 20
-757.2049287019
 10
1521.9640602636
 20
-767.81860695
 10
1526.223490606
 20
-778.461955406
 10
1530.2679549842
 20
-789.1253554507
 10
1534.0937983302
 20
-799.7991703436
 10
1537.6975631483
 20
-810.4737539323
 10
1541.07599264
 20
-821.1394593697
 10
1544.226033647
 20
-831.7866478319
 10
1547.1448394106
 20
-842.4056972294
 10
1549.8297721443
 20
-852.9870109025
 10
1552.2784054175
 20
-863.521026294
 10
1554.4885263485
 20
-873.9982235911
 10
1556.4581376041
 20
-884.409134329
 10
1558.1854592051
 20
-894.7443499472
 10
1559.6689301343
 20
-904.9945302926
 10
1560.9072097477
 20
-915.1504120602
 10
1561.8991789857
 20
-925.2028171647
 10
1562.6439413848
 20
-935.1426610348
 10
1563.1408238874
 20
-944.9609608232
 10
1563.3893774502
 20
-954.6488435245
 10
1563.3893774502
 20
-964.1975539941
 10
1563.1408238874
 20
-973.5984628602
 10
1562.6439413848
 20
-982.8430743224
 10
1561.8991789857
 20
-991.9230338296
 10
1560.9072097477
 20
-1000.8301356304
 10
1559.6689301343
 20
-1009.5563301881
 10
1558.1854592051
 20
-1018.0937314562
 10
1556.4581376041
 20
-1026.4346240042
 10
1554.4885263485
 20
-1034.5714699911
 10
1552.2784054175
 20
-1042.496915977
 10
1549.8297721443
 20
-1050.2037995684
 10
1547.1448394106
 20
-1057.6851558916
 10
1544.226033647
 20
-1064.9342238865
 10
1541.07599264
 20
-1071.9444524169
 10
1537.6975631483
 20
-1078.7095061909
 10
1534.0937983302
 20
-1085.2232714861
 10
1530.2679549842
 20
-1091.479861675
 10
1526.223490606
 20
-1097.4736225447
 10
1521.9640602636
 20
-1103.1991374064
 10
1517.4935132944
 20
-1108.6512319913
 10
1512.8158898263
 20
-1113.8249791261
 10
1507.9354171267
 20
-1118.7157031859
 10
1502.8565057821
 20
-1123.3189843199
 10
1497.5837457121
 20
-1127.6306624455
 10
1492.1219020216
 20
-1131.6468410079
 10
1486.4759106945
 20
-1135.3638905015
 10
1484.1941857578
 20
-1136.7501149502
  0
SPLINE
  5
119
330
1F
100
AcDbEntity
  8
0
  6
Continuous
 62
     7
370
    25
100
AcDbSpline
210
0.0
220
0.0
230
1.0
 70
     8
 71
     3
 72
    12
 73
     8
 74
     0
 42
0.00000001
 43
0.00000001
 40
0.0
 40
0.0
 40
0.0
 40
0.0
 40
0.2097307530027333
 40
0.4194430510762808
 40
0.6295096711705266
 40
0.8393617096995153
 40
1.0
 40
1.0
 40
1.0
 40
1.0
 10
1304.923477656138
 20
-507.8053947776183
 30
0.0
 10
1304.131207065185
 20
-507.7267390508168
 30
0.0
 10
1302.546735597889
 20
-507.5694345184012
 30
0.0
 10
1300.391210600966
 20
-506.7345716966964
 30
0.0
 10
1298.741383743512
 20
-505.5685240006158
 30
0.0
 10
1297.747250188028
 20
-504.2621536450051
 30
0.0
 10
1297.707628116044
 20
-503.3949770418527
 30
0.0
 10
1297.690448661127
 20
-503.0189840507291
 30
0.0
  0
SPLINE
  5
11A
330
1F
100
AcDbEntity
  8
0
  6
Continuous
 62
     7
370
    25
100
AcDbSpline
210
0.0
220
0.0
230
1.0
 70
     8
 71
     3
 72
    12
 73
     8
 74
     0
 42
0.00000001
 43
0.00000001
 40
0.0
 40
0.0
 40
0.0
 40
0.0
 40
0.2042974364372823
 40
0.4248076306712288
 40
0.6443503989179314
 40
0.863690826905668
 40
1.0
 40
1.0
 40
1.0
 40
1.0
 10
1311.590679344077
 20
-503.8199832513125
 30
0.0
 10
1311.536507074797
 20
-504.2770742240704
 30
0.0
 10
1311.423863500985
 20
-505.2275302675957
 30
0.0
 10
1310.292873891058
 20
-506.4645750189208
 30
0.0
 10
1308.567360354879
 20
-507.3780053232788
 30
0.0
 10
1306.661836501229
 20
-507.80348108175
 30
0.0
 10
1305.405132358023
 20
-507.8048645415192
 30
0.0
 10
1304.923477656138
 20
-507.8053947776183
 30
0.0
  0
SPLINE
  5
11B
330
1F
100
AcDbEntity
  8
0
  6
Continuous
 62
     7
370
    25
100
AcDbSpline
210
0.0
220
0.0
230
1.0
 70
     8
 71
     3
 72
    13
 73
     9
 74
     0
 42
0.00000001
 43
0.00000001
 40
0.0
 40
0.0
 40
0.0
 40
0.0
 40
0.1905642947062754
 40
0.3811110814900353
 40
0.5721124751887631
 40
0.7638012134641626
 40
0.9559074188058222
 40
1.0
 40
1.0
 40
1.0
 40
1.0
 10
1256.481065810042
 20
-478.36241655249
 30
0.0
 10
1255.693857829134
 20
-478.4334362823176
 30
0.0
 10
1254.119514191341
 20
-478.5754692170993
 30
0.0
 10
1251.836123484761
 20
-478.2641839065676
 30
0.0
 10
1249.914624702841
 20
-477.6046918326467
 30
0.0
 10
1248.639436260281
 20
-476.6322118547926
 30
0.0
 10
1248.05558195756
 20
-475.7680654887736
 30
0.0
 10
1248.171196559109
 20
-475.2678115928771
 30
0.0
 10
1248.192778999395
 20
-475.1744263310558
 30
0.0
  0
SPLINE
  5
11C
330
1F
100
AcDbEntity
  8
0
  6
Continuous
 62
     7
370
    25
100
AcDbSpline
210
0.0
220
0.0
230
1.0
 70
     8
 71
     3
 72
    12
 73
     8
 74
     0
 42
0.00000001
 43
0.00000001
 40
0.0
 40
0.0
 40
0.0
 40
0.0
 40
0.112520985492738
 40
0.3581698533348467
 40
0.6031480257256224
 40
0.8476923485609321
 40
1.0
 40
1.0
 40
1.0
 40
1.0
 10
1262.022590177898
 20
-474.525254321611
 30
0.0
 10
1262.044432882445
 20
-474.7141058486452
 30
0.0
 10
1262.113961230867
 20
-475.3152463687327
 30
0.0
 10
1261.381450585726
 20
-476.330960161077
 30
0.0
 10
1259.945384789788
 20
-477.3801033536596
 30
0.0
 10
1258.182462171126
 20
-478.0609682718621
 30
0.0
 10
1256.952942604675
 20
-478.2788108438711
 30
0.0
 10
1256.481065810042
 20
-478.3624165524901
 30
0.0
  0
LWPOLYLINE
  5
11D
330
1F
100
AcDbEntity
  8
0
  6
Continuous
 62
     7
370
    25
100
AcDbPolyline
 90
       29
 70
   128
 43
0.0
 10
1022.4837643035
 20
-660.1751481558
 10
1023.4610862298
 20
-660.8826274858
 10
1024.1412001473
 20
-661.697914239
 10
1024.4900023044
 20
-662.5801265335
 10
1024.4900023044
 20
-663.4850265609
 10
1024.1412001473
 20
-664.3672388554
 10
1023.4610862298
 20
-665.1825256087
 10
1022.4837643035
 20
-665.8900049386
 10
1021.2582413708
 20
-666.4542008774
 10
1019.8459702689
 20
-666.8468222848
 10
1018.3177681679
 20
-667.0481814841
 10
1016.7502655024
 20
-667.0481814841
 10
1015.2220634015
 20
-666.8468222848
 10
1013.8097922996
 20
-666.4542008774
 10
1012.5842693669
 20
-665.8900049386
 10
1011.6069474406
 20
-665.1825256087
 10
1010.926833523
 20
-664.3672388554
 10
1010.5780313659
 20
-663.4850265609
 10
1010.5780313659
 20
-662.5801265335
 10
1010.926833523
 20
-661.697914239
 10
1011.6069474406
 20
-660.8826274858
 10
1012.5842693669
 20
-660.1751481558
 10
1013.8097922996
 20
-659.610952217
 10
1015.2220634015
 20
-659.2183308096
 10
1016.7502655024
 20
-659.0169716104
 10
1018.3177681679
 20
-659.0169716104
 10
1019.8459702689
 20
-659.2183308096
 10
1021.2582413708
 20
-659.610952217
 10
1022.4837643035
 20
-660.1751481558
  0
LWPOLYLINE
  5
11E
330
1F
100
AcDbEntity
  8
0
  6
Continuous
 62
     7
370
    25
100
AcDbPolyline
 90
       24
 70
   128
 43
0.0
 10
1021.0695507411
 20
-660.9915562677
 10
1021.8923191853
 20
-661.6179035175
 10
1022.3918522822
 20
-662.3491705942
 10
1022.531101947
 20
-663.1311227642
 10
1022.2997406692
 20
-663.905766212
 10
1021.7149274564
 20
-664.6156491769
 10
1020.8200352293
 20
-665.208122887
 10
1019.6814340503
 20
-665.6392462775
 10
1018.3835687603
 20
-665.8770448989
 10
1017.0226960905
 20
-665.9038823152
 10
1015.6997457411
 20
-665.717768118
 10
1014.5128348876
 20
-665.332505546
 10
1013.5499912781
 20
-664.7766677615
 10
1012.8826246185
 20
-664.0914787105
 10
1012.5602304409
 20
-663.3277557301
 10
1012.6067192466
 20
-662.5421406601
 10
1013.0186431735
 20
-661.7928989762
 10
1013.7654517085
 20
-661.1355985066
 10
1014.7917574789
 20
-660.6189882202
 10
1016.0214440808
 20
-660.2813827386
 10
1017.3633112842
 20
-660.1478207159
 10
1018.7178389375
 20
-660.2282078363
 10
1019.9845679211
 20
-660.5165821549
 10
1021.0695507411
 20
-660.9915562677
  0
LWPOLYLINE
  5
11F
330
1F
100
AcDbEntity
  8
0
  6
Continuous
 62
     7
370
    25
100
AcDbPolyline
 90
       29
 70
   128
 43
0.0
 10
963.0867946838
 20
-637.3157210248
 10
962.1094727575
 20
-636.6082416949
 10
961.42935884
 20
-635.7929549416
 10
961.0805566829
 20
-634.9107426471
 10
961.0805566829
 20
-634.0058426197
 10
961.42935884
 20
-633.1236303252
 10
962.1094727575
 20
-632.308343572
 10
963.0867946838
 20
-631.600864242
 10
964.3123176165
 20
-631.0366683032
 10
965.7245887184
 20
-630.6440468958
 10
967.2527908194
 20
-630.4426876966
 10
968.8202934848
 20
-630.4426876966
 10
970.3484955858
 20
-630.6440468958
 10
971.7607666877
 20
-631.0366683032
 10
972.9862896204
 20
-631.600864242
 10
973.9636115467
 20
-632.308343572
 10
974.6437254643
 20
-633.1236303252
 10
974.9925276214
 20
-634.0058426197
 10
974.9925276214
 20
-634.9107426471
 10
974.6437254643
 20
-635.7929549416
 10
973.9636115467
 20
-636.6082416949
 10
972.9862896204
 20
-637.3157210248
 10
971.7607666877
 20
-637.8799169636
 10
970.3484955858
 20
-638.272538371
 10
968.8202934848
 20
-638.4738975703
 10
967.2527908194
 20
-638.4738975703
 10
965.7245887184
 20
-638.272538371
 10
964.3123176165
 20
-637.8799169636
 10
963.0867946838
 20
-637.3157210248
  0
LWPOLYLINE
  5
120
330
1F
100
AcDbEntity
  8
0
  6
Continuous
 62
     7
370
    25
100
AcDbPolyline
 90
       24
 70
   128
 43
0.0
 10
964.5010082462
 20
-636.499312913
 10
963.6782398019
 20
-635.8729656631
 10
963.1787067051
 20
-635.1416985864
 10
963.0394570403
 20
-634.3597464165
 10
963.270818318
 20
-633.5851029687
 10
963.8556315308
 20
-632.8752200037
 10
964.750523758
 20
-632.2827462936
 10
965.889124937
 20
-631.8516229031
 10
967.186990227
 20
-631.6138242817
 10
968.5478628968
 20
-631.5869868655
 10
969.8708132462
 20
-631.7731010626
 10
971.0577240997
 20
-632.1583636347
 10
972.0205677092
 20
-632.7142014191
 10
972.6879343688
 20
-633.3993904702
 10
973.0103285464
 20
-634.1631134506
 10
972.9638397407
 20
-634.9487285206
 10
972.5519158137
 20
-635.6979702044
 10
971.8051072787
 20
-636.355270674
 10
970.7788015084
 20
-636.8718809604
 10
969.5491149065
 20
-637.209486442
 10
968.207247703
 20
-637.3430484647
 10
966.8527200498
 20
-637.2626613443
 10
965.5859910662
 20
-636.9742870257
 10
964.5010082462
 20
-636.499312913
  0
LWPOLYLINE
  5
121
330
1F
100
AcDbEntity
  8
0
  6
Continuous
 62
     7
370
    25
100
AcDbPolyline
 90
       29
 70
   128
 43
0.0
 10
1299.6696225286
 20
-500.1591582386
 10
1298.6923006023
 20
-499.4516789087
 10
1298.0121866847
 20
-498.6363921554
 10
1297.6633845277
 20
-497.7541798609
 10
1297.6633845277
 20
-496.8492798335
 10
1298.0121866847
 20
-495.967067539
 10
1298.6923006023
 20
-495.1517807858
 10
1299.6696225286
 20
-494.4443014558
 10
1300.8951454613
 20
-493.880105517
 10
1302.3074165632
 20
-493.4874841096
 10
1303.8356186642
 20
-493.2861249104
 10
1305.4031213296
 20
-493.2861249104
 10
1306.9313234306
 20
-493.4874841096
 10
1308.3435945325
 20
-493.880105517
 10
1309.5691174652
 20
-494.4443014558
 10
1310.5464393915
 20
-495.1517807858
 10
1311.2265533091
 20
-495.967067539
 10
1311.5753554662
 20
-496.8492798335
 10
1311.5753554662
 20
-497.7541798609
 10
1311.2265533091
 20
-498.6363921554
 10
1310.5464393915
 20
-499.4516789087
 10
1309.5691174652
 20
-500.1591582386
 10
1308.3435945325
 20
-500.7233541774
 10
1306.9313234306
 20
-501.1159755848
 10
1305.4031213296
 20
-501.3173347841
 10
1303.8356186642
 20
-501.3173347841
 10
1302.3074165632
 20
-501.1159755848
 10
1300.8951454613
 20
-500.7233541774
 10
1299.6696225286
 20
-500.1591582386
  0
LWPOLYLINE
  5
122
330
1F
100
AcDbEntity
  8
0
  6
Continuous
 62
     7
370
    25
100
AcDbPolyline
 90
       24
 70
   128
 43
0.0
 10
1301.083836091
 20
-499.3427501268
 10
1300.2610676467
 20
-498.7164028769
 10
1299.7615345499
 20
-497.9851358002
 10
1299.6222848851
 20
-497.2031836303
 10
1299.8536461628
 20
-496.4285401825
 10
1300.4384593756
 20
-495.7186572175
 10
1301.3333516028
 20
-495.1261835074
 10
1302.4719527818
 20
-494.6950601169
 10
1303.7698180718
 20
-494.4572614955
 10
1305.1306907416
 20
-494.4304240792
 10
1306.453641091
 20
-494.6165382764
 10
1307.6405519445
 20
-495.0018008485
 10
1308.603395554
 20
-495.5576386329
 10
1309.2707622136
 20
-496.242827684
 10
1309.5931563912
 20
-497.0065506644
 10
1309.5466675855
 20
-497.7921657344
 10
1309.1347436585
 20
-498.5414074182
 10
1308.3879351235
 20
-499.1987078878
 10
1307.3616293532
 20
-499.7153181742
 10
1306.1319427513
 20
-500.0529236558
 10
1304.7900755478
 20
-500.1864856785
 10
1303.4355478946
 20
-500.1060985581
 10
1302.168818911
 20
-499.8177242395
 10
1301.083836091
 20
-499.3427501268
  0
LWPOLYLINE
  5
123
330
1F
100
AcDbEntity
  8
0
  6
Continuous
 62
     7
370
    25
100
AcDbPolyline
 90
       29
 70
   128
 43
0.0
 10
1260.0716427822
 20
-465.870017542
 10
1261.0489647084
 20
-466.577496872
 10
1261.729078626
 20
-467.3927836252
 10
1262.0778807831
 20
-468.2749959197
 10
1262.0778807831
 20
-469.1798959471
 10
1261.729078626
 20
-470.0621082416
 10
1261.0489647084
 20
-470.8773949949
 10
1260.0716427822
 20
-471.5848743248
 10
1258.8461198495
 20
-472.1490702636
 10
1257.4338487475
 20
-472.541691671
 10
1255.9056466466
 20
-472.7430508703
 10
1254.3381439811
 20
-472.7430508703
 10
1252.8099418802
 20
-472.541691671
 10
1251.3976707782
 20
-472.1490702636
 10
1250.1721478455
 20
-471.5848743248
 10
1249.1948259193
 20
-470.8773949949
 10
1248.5147120017
 20
-470.0621082416
 10
1248.1659098446
 20
-469.1798959471
 10
1248.1659098446
 20
-468.2749959197
 10
1248.5147120017
 20
-467.3927836252
 10
1249.1948259193
 20
-466.577496872
 10
1250.1721478455
 20
-465.870017542
 10
1251.3976707782
 20
-465.3058216032
 10
1252.8099418802
 20
-464.9132001958
 10
1254.3381439811
 20
-464.7118409966
 10
1255.9056466466
 20
-464.7118409966
 10
1257.4338487475
 20
-464.9132001958
 10
1258.8461198495
 20
-465.3058216032
 10
1260.0716427822
 20
-465.870017542
  0
LWPOLYLINE
  5
124
330
1F
100
AcDbEntity
  8
0
  6
Continuous
 62
     7
370
    25
100
AcDbPolyline
 90
       24
 70
   128
 43
0.0
 10
1258.6574292198
 20
-466.6864256539
 10
1259.480197664
 20
-467.3127729037
 10
1259.9797307608
 20
-468.0440399804
 10
1260.1189804257
 20
-468.8259921503
 10
1259.8876191479
 20
-469.6006355982
 10
1259.3028059351
 20
-470.3105185631
 10
1258.4079137079
 20
-470.9029922732
 10
1257.269312529
 20
-471.3341156637
 10
1255.971447239
 20
-471.5719142851
 10
1254.6105745691
 20
-471.5987517014
 10
1253.2876242198
 20
-471.4126375042
 10
1252.1007133662
 20
-471.0273749321
 10
1251.1378697568
 20
-470.4715371477
 10
1250.4705030972
 20
-469.7863480966
 10
1250.1481089196
 20
-469.0226251163
 10
1250.1945977253
 20
-468.2370100462
 10
1250.6065216522
 20
-467.4877683624
 10
1251.3533301872
 20
-466.8304678928
 10
1252.3796359576
 20
-466.3138576064
 10
1253.6093225594
 20
-465.9762521248
 10
1254.9511897629
 20
-465.8426901021
 10
1256.3057174162
 20
-465.9230772225
 10
1257.5724463997
 20
-466.2114515411
 10
1258.6574292198
 20
-466.6864256539
  0
LWPOLYLINE
  5
125
330
1F
100
AcDbEntity
  8
0
  6
Continuous
 62
     1
370
    25
100
AcDbPolyline
 90
      106
 70
   128
 43
0.0
 10
932.5051649846
 20
-555.7570128463
 10
937.685506642
 20
-552.9212981215
 10
943.7848306893
 20
-549.9585722078
 10
950.0501721927
 20
-547.3063265791
 10
956.4758690305
 20
-544.9669581259
 10
963.0561141645
 20
-542.942580985
 10
969.7849608877
 20
-541.235024629
 10
976.656328199
 20
-539.8458322126
 10
983.6640062983
 20
-538.7762591784
 10
990.8016621985
 20
-538.0272721222
 10
998.062845449
 20
-537.5995479195
 10
1005.4409939647
 20
-537.4934731138
 10
1012.9294399565
 20
-537.7091435669
 10
1020.5214159575
 20
-538.246364373
 10
1028.2100609381
 20
-539.1046500344
 10
1035.9884265071
 20
-540.2832248999
 10
1043.8494831909
 20
-541.7810238667
 10
1051.7861267861
 20
-543.596693342
 10
1059.79118478
 20
-545.7285924669
 10
1067.8574228322
 20
-548.1747945991
 10
1075.9775513126
 20
-550.933089054
 10
1084.1442318892
 20
-554.0009831023
 10
1092.3500841599
 20
-557.3757042234
 10
1100.5876923223
 20
-561.0542026103
 10
1108.8496118755
 20
-565.0331539261
 10
1117.128376348
 20
-569.3089623084
 10
1125.416504045
 20
-573.8777636185
 10
1133.7065048101
 20
-578.7354289341
 10
1141.9908867942
 20
-583.8775682801
 10
1150.2621632258
 20
-589.2995345964
 10
1158.5128591773
 20
-594.9964279372
 10
1166.7355183202
 20
-600.9630998995
 10
1174.9227096634
 20
-607.1941582754
 10
1183.0670342687
 20
-613.6839719257
 10
1191.1611319375
 20
-620.4266758683
 10
1199.1976878626
 20
-627.416176579
 10
1207.1694392381
 20
-634.646157498
 10
1215.0691818236
 20
-642.1100847385
 10
1222.8897764545
 20
-649.8012129915
 10
1230.6241554939
 20
-657.7125916216
 10
1238.2653292197
 20
-665.8370709484
 10
1245.8063921415
 20
-674.167308708
 10
1253.2405292411
 20
-682.6957766881
 10
1260.5610221315
 20
-691.4147675318
 10
1267.7612551281
 20
-700.3164017024
 10
1274.8347212282
 20
-709.3926346048
 10
1281.7750279905
 20
-718.635263855
 10
1288.5759033131
 20
-728.0359366935
 10
1295.2312011008
 20
-737.5861575331
 10
1301.7349068202
 20
-747.2772956372
 10
1308.0811429348
 20
-757.100592919
 10
1314.2641742167
 20
-767.047171857
 10
1320.2784129295
 20
-777.1080435171
 10
1326.1184238786
 20
-787.2741156766
 10
1331.7789293222
 20
-797.536201041
 10
1337.254813742
 20
-807.8850255466
 10
1342.5411284651
 20
-818.3112367414
 10
1347.6330961371
 20
-828.8054122378
 10
1352.526115039
 20
-839.3580682272
 10
1357.2157632461
 20
-849.959668051
 10
1361.697802624
 20
-860.600630819
 10
1365.9681826587
 20
-871.271340068
 10
1370.0230441176
 20
-881.9621524521
 10
1373.8587225364
 20
-892.6634064579
 10
1377.4717515315
 20
-903.3654311355
 10
1380.8588659319
 20
-914.0585548388
 10
1384.0170047307
 20
-924.7331139654
 10
1386.9433138511
 20
-935.3794616904
 10
1389.6351487254
 20
-945.987976684
 10
1392.0900766857
 20
-956.5490718066
 10
1394.3058791615
 20
-967.0532027729
 10
1396.2805536852
 20
-977.4908767774
 10
1398.0123157016
 20
-987.8526610733
 10
1399.4996001807
 20
-998.1291914967
 10
1400.7410630322
 20
-1008.3111809295
 10
1401.7355823197
 20
-1018.3894276924
 10
1402.482259275
 20
-1028.3548238603
 10
1402.9804191105
 20
-1038.1983634939
 10
1403.2296116285
 20
-1047.911150778
 10
1403.2296116285
 20
-1057.4844080612
 10
1402.9804191105
 20
-1066.9094837881
 10
1402.482259275
 20
-1076.1778603183
 10
1401.7355823197
 20
-1085.2811616238
 10
1400.7410630322
 20
-1094.2111608585
 10
1399.4996001807
 20
-1102.959787793
 10
1398.0123157016
 20
-1111.519136108
 10
1396.2805536852
 20
-1119.8814705392
 10
1394.3058791615
 20
-1128.039233868
 10
1392.0900766857
 20
-1135.985053751
 10
1389.6351487254
 20
-1143.7117493825
 10
1386.9433138511
 20
-1151.2123379842
 10
1384.0170047307
 20
-1158.4800411153
 10
1380.8588659319
 20
-1165.5082907987
 10
1377.4717515315
 20
-1172.2907354564
 10
1373.8587225364
 20
-1178.8212456496
 10
1370.0230441176
 20
-1185.0939196179
 10
1365.9681826587
 20
-1191.1030886132
 10
1361.697802624
 20
-1196.8433220221
 10
1357.2157632461
 20
-1202.3094322743
 10
1352.526115039
 20
-1207.4964795303
 10
1347.6330961371
 20
-1212.3997761455
 10
1342.5411284651
 20
-1217.0148909071
 10
1337.254813742
 20
-1221.3376530382
 10
1331.7789293222
 20
-1225.3641559671
 10
1326.1184238786
 20
-1229.0907608578
 10
1322.4732497439
 20
-1231.2752530656
  0
LWPOLYLINE
  5
126
330
1F
100
AcDbEntity
  8
0
  6
Continuous
 62
     1
370
    25
100
AcDbPolyline
 90
      106
 70
   128
 43
0.0
 10
950.1826379753
 20
-545.5520249078
 10
955.3631761717
 20
-542.7161967238
 10
961.462500219
 20
-539.75347081
 10
967.7278417224
 20
-537.1012251813
 10
974.1535385602
 20
-534.7618567281
 10
980.7337836941
 20
-532.7374795872
 10
987.4626304174
 20
-531.0299232312
 10
994.3339977287
 20
-529.6407308148
 10
1001.3416758279
 20
-528.5711577806
 10
1008.4793317282
 20
-527.8221707244
 10
1015.7405149787
 20
-527.3944465218
 10
1023.1186634943
 20
-527.288371716
 10
1030.6071094862
 20
-527.5040421691
 10
1038.1990854872
 20
-528.0412629753
 10
1045.8877304677
 20
-528.8995486366
 10
1053.6660960367
 20
-530.0781235021
 10
1061.5271527205
 20
-531.5759224689
 10
1069.4637963158
 20
-533.3915919442
 10
1077.4688543097
 20
-535.5234910692
 10
1085.5350923619
 20
-537.9696932014
 10
1093.6552208423
 20
-540.7279876562
 10
1101.8219014189
 20
-543.7958817045
 10
1110.0277536896
 20
-547.1706028256
 10
1118.265361852
 20
-550.8491012125
 10
1126.5272814052
 20
-554.8280525283
 10
1134.8060458777
 20
-559.1038609106
 10
1143.0941735747
 20
-563.6726622207
 10
1151.3841743398
 20
-568.5303275363
 10
1159.6685563238
 20
-573.6724668823
 10
1167.9398327554
 20
-579.0944331986
 10
1176.190528707
 20
-584.7913265394
 10
1184.4131878499
 20
-590.7579985017
 10
1192.600379193
 20
-596.9890568777
 10
1200.7447037983
 20
-603.4788705279
 10
1208.8388014672
 20
-610.2215744705
 10
1216.8753573922
 20
-617.2110751812
 10
1224.8471087677
 20
-624.4410561002
 10
1232.7468513532
 20
-631.9049833408
 10
1240.5674459842
 20
-639.5961115938
 10
1248.3018250236
 20
-647.5074902238
 10
1255.9429987494
 20
-655.6319695506
 10
1263.4840616712
 20
-663.9622073102
 10
1270.9181987708
 20
-672.4906752903
 10
1278.2386916611
 20
-681.209666134
 10
1285.4389246578
 20
-690.1113003046
 10
1292.5123907578
 20
-699.187533207
 10
1299.4526975202
 20
-708.4301624572
 10
1306.2535728427
 20
-717.8308352957
 10
1312.9088706305
 20
-727.3810561353
 10
1319.4125763499
 20
-737.0721942394
 10
1325.7588124645
 20
-746.8954915212
 10
1331.9418437463
 20
-756.8420704592
 10
1337.9560824592
 20
-766.9029421193
 10
1343.7960934082
 20
-777.0690142788
 10
1349.4565988519
 20
-787.3310996433
 10
1354.9324832716
 20
-797.6799241488
 10
1360.2187979948
 20
-808.1061353436
 10
1365.3107656668
 20
-818.60031084
 10
1370.2037845687
 20
-829.1529668294
 10
1374.8934327758
 20
-839.7545666532
 10
1379.3754721536
 20
-850.3955294212
 10
1383.6458521884
 20
-861.0662386702
 10
1387.7007136473
 20
-871.7570510543
 10
1391.5363920661
 20
-882.4583050601
 10
1395.1494210611
 20
-893.1603297377
 10
1398.5365354615
 20
-903.853453441
 10
1401.6946742604
 20
-914.5280125676
 10
1404.6209833807
 20
-925.1743602927
 10
1407.3128182551
 20
-935.7828752862
 10
1409.7677462154
 20
-946.3439704088
 10
1411.9835486911
 20
-956.8481013751
 10
1413.9582232148
 20
-967.2857753797
 10
1415.6899852312
 20
-977.6475596755
 10
1417.1772697104
 20
-987.9240900989
 10
1418.4187325619
 20
-998.1060795317
 10
1419.4132518493
 20
-1008.1843262946
 10
1420.1599288047
 20
-1018.1497224626
 10
1420.6580886402
 20
-1027.9932620962
 10
1420.9072811582
 20
-1037.7060493803
 10
1420.9072811582
 20
-1047.2793066634
 10
1420.6580886402
 20
-1056.7043823903
 10
1420.1599288047
 20
-1065.9727589205
 10
1419.4132518493
 20
-1075.076060226
 10
1418.4187325619
 20
-1084.0060594607
 10
1417.1772697104
 20
-1092.7546863952
 10
1415.6899852312
 20
-1101.3140347102
 10
1413.9582232148
 20
-1109.6763691414
 10
1411.9835486911
 20
-1117.8341324702
 10
1409.7677462154
 20
-1125.7799523532
 10
1407.3128182551
 20
-1133.5066479847
 10
1404.6209833807
 20
-1141.0072365864
 10
1401.6946742604
 20
-1148.2749397175
 10
1398.5365354615
 20
-1155.3031894009
 10
1395.1494210611
 20
-1162.0856340586
 10
1391.5363920661
 20
-1168.6161442518
 10
1387.7007136473
 20
-1174.8888182201
 10
1383.6458521884
 20
-1180.8979872154
 10
1379.3754721536
 20
-1186.6382206243
 10
1374.8934327758
 20
-1192.1043308766
 10
1370.2037845687
 20
-1197.2913781325
 10
1365.3107656668
 20
-1202.1946747477
 10
1360.2187979948
 20
-1206.8097895093
 10
1354.9324832716
 20
-1211.1325516404
 10
1349.4565988519
 20
-1215.1590545693
 10
1343.7960934082
 20
-1218.88565946
 10
1340.1509437034
 20
-1221.0701375648
  0
ENDSEC
  0
SECTION
  2
OBJECTS
  0
DICTIONARY
  5
C
330
0
100
AcDbDictionary
281
     1
  3
ACAD_GROUP
350
D
  3
ACAD_LAYOUT
350
1A
  3
ACAD_MLINESTYLE
350
17
  3
ACAD_PLOTSETTINGS
350
19
  3
ACAD_PLOTSTYLENAME
350
E
  3
ACAD_SCALELIST
350
47
  3
DWGPROPS
350
127
  0
DICTIONARY
  5
D
102
{ACAD_REACTORS
330
C
102
}
330
C
100
AcDbDictionary
281
     1
  0
DICTIONARY
  5
1A
102
{ACAD_REACTORS
330
C
102
}
330
C
100
AcDbDictionary
281
     1
  3
Layout1
350
1E
  3
Layout2
350
26
  3
Model
350
22
  0
DICTIONARY
  5
17
102
{ACAD_REACTORS
330
C
102
}
330
C
100
AcDbDictionary
281
     1
  3
Standard
350
18
  0
DICTIONARY
  5
19
102
{ACAD_REACTORS
330
C
102
}
330
C
100
AcDbDictionary
281
     1
  0
ACDBDICTIONARYWDFLT
  5
E
102
{ACAD_REACTORS
330
C
102
}
330
C
100
AcDbDictionary
281
     1
  3
Normal
350
F
100
AcDbDictionaryWithDefault
340
F
  0
DICTIONARY
  5
47
102
{ACAD_REACTORS
330
C
102
}
330
C
100
AcDbDictionary
281
     1
  3
A0
350
48
  3
A1
350
49
  3
A2
350
4A
  3
A3
350
4B
  3
A4
350
4C
  3
A5
350
4D
  3
A6
350
4E
  3
A7
350
4F
  3
A8
350
50
  3
A9
350
51
  3
B0
350
52
  3
B1
350
53
  3
B2
350
54
  3
B3
350
55
  3
B4
350
56
  3
B5
350
57
  3
B6
350
58
  3
B7
350
59
  3
B8
350
5A
  3
B9
350
5B
  3
C0
350
5C
  3
C1
350
5D
  3
C2
350
5E
  3
C3
350
5F
  3
C4
350
60
  3
C5
350
61
  3
C6
350
62
  3
C7
350
63
  3
C8
350
64
  3
C9
350
65
  3
D0
350
66
  3
D1
350
67
  3
D2
350
68
  0
XRECORD
  5
127
102
{ACAD_REACTORS
330
C
102
}
330
C
100
AcDbXrecord
280
     1
  1
DWGPROPS COOKIE
  2

  3

  4

  6

  7

  8
b.kav
  9

300
=
301
=
302
=
303
=
304
=
305
=
306
=
307
=
308
=
309
=
 40
0.0
 41
2459935.585500475
 42
2459935.585500648
  1

 90
        0
  0
LAYOUT
  5
1E
102
{ACAD_REACTORS
330
1A
102
}
330
1A
100
AcDbPlotSettings
  1

  2
none_device
  4

  6

 40
0.0
 41
0.0
 42
0.0
 43
0.0
 44
0.0
 45
0.0
 46
0.0
 47
0.0
 48
0.0
 49
0.0
140
0.0
141
0.0
142
1.0
143
1.0
 70
   688
 72
     1
 73
     0
 74
     5
  7

 75
    16
147
1.0
148
0.0
149
0.0
100
AcDbLayout
  1
Layout1
 70
     1
 71
     1
 10
0.0
 20
0.0
 11
420.0
 21
297.0
 12
0.0
 22
0.0
 32
0.0
 14
1.0000000000E+20
 24
1.0000000000E+20
 34
1.0000000000E+20
 15
-1.0000000000E+20
 25
-1.0000000000E+20
 35
-1.0000000000E+20
146
0.0
 13
0.0
 23
0.0
 33
0.0
 16
1.0
 26
0.0
 36
0.0
 17
0.0
 27
1.0
 37
0.0
 76
     0
330
1B
  0
LAYOUT
  5
26
102
{ACAD_REACTORS
330
1A
102
}
330
1A
100
AcDbPlotSettings
  1

  2
none_device
  4

  6

 40
0.0
 41
0.0
 42
0.0
 43
0.0
 44
0.0
 45
0.0
 46
0.0
 47
0.0
 48
0.0
 49
0.0
140
0.0
141
0.0
142
1.0
143
1.0
 70
   688
 72
     1
 73
     0
 74
     5
  7

 75
    16
147
1.0
148
0.0
149
0.0
100
AcDbLayout
  1
Layout2
 70
     1
 71
     2
 10
0.0
 20
0.0
 11
0.0
 21
0.0
 12
0.0
 22
0.0
 32
0.0
 14
0.0
 24
0.0
 34
0.0
 15
0.0
 25
0.0
 35
0.0
146
0.0
 13
0.0
 23
0.0
 33
0.0
 16
1.0
 26
0.0
 36
0.0
 17
0.0
 27
1.0
 37
0.0
 76
     0
330
23
  0
LAYOUT
  5
22
102
{ACAD_REACTORS
330
1A
102
}
330
1A
100
AcDbPlotSettings
  1

  2
none_device
  4
Letter_(8.50_x_11.00_Inches)
  6

 40
6.35
 41
6.35
 42
6.35000508
 43
6.35000508
 44
215.9
 45
279.4
 46
0.0
 47
0.0
 48
0.0
 49
0.0
140
0.0
141
0.0
142
1.0
143
1.0
 70
  1712
 72
     1
 73
     0
 74
     0
  7

 75
     0
147
1.0
148
0.0
149
0.0
100
AcDbLayout
  1
Model
 70
     1
 71
     0
 10
0.0
 20
0.0
 11
279.4
 21
215.9
 12
0.0
 22
0.0
 32
0.0
 14
0.0
 24
0.0
 34
0.0
 15
279.4
 25
215.9
 35
0.0
146
0.0
 13
0.0
 23
0.0
 33
0.0
 16
1.0
 26
0.0
 36
0.0
 17
0.0
 27
1.0
 37
0.0
 76
     0
330
1F
331
29
  0
MLINESTYLE
  5
18
102
{ACAD_REACTORS
330
17
102
}
330
17
100
AcDbMlineStyle
  2
Standard
 70
     0
  3

 62
   256
 51
90.0
 52
90.0
 71
     2
 49
0.5
 62
   256
  6
BYLAYER
 49
-0.5
 62
   256
  6
BYLAYER
  0
ACDBPLACEHOLDER
  5
F
102
{ACAD_REACTORS
330
E
102
}
330
E
  0
SCALE
  5
48
102
{ACAD_REACTORS
330
47
102
}
330
47
100
AcDbScale
 70
     0
300
1:1
140
1.0
141
1.0
290
     1
  0
SCALE
  5
49
102
{ACAD_REACTORS
330
47
102
}
330
47
100
AcDbScale
 70
     0
300
1:2
140
1.0
141
2.0
290
     0
  0
SCALE
  5
4A
102
{ACAD_REACTORS
330
47
102
}
330
47
100
AcDbScale
 70
     0
300
1:4
140
1.0
141
4.0
290
     0
  0
SCALE
  5
4B
102
{ACAD_REACTORS
330
47
102
}
330
47
100
AcDbScale
 70
     0
300
1:5
140
1.0
141
5.0
290
     0
  0
SCALE
  5
4C
102
{ACAD_REACTORS
330
47
102
}
330
47
100
AcDbScale
 70
     0
300
1:8
140
1.0
141
8.0
290
     0
  0
SCALE
  5
4D
102
{ACAD_REACTORS
330
47
102
}
330
47
100
AcDbScale
 70
     0
300
1:10
140
1.0
141
10.0
290
     0
  0
SCALE
  5
4E
102
{ACAD_REACTORS
330
47
102
}
330
47
100
AcDbScale
 70
     0
300
1:16
140
1.0
141
16.0
290
     0
  0
SCALE
  5
4F
102
{ACAD_REACTORS
330
47
102
}
330
47
100
AcDbScale
 70
     0
300
1:20
140
1.0
141
20.0
290
     0
  0
SCALE
  5
50
102
{ACAD_REACTORS
330
47
102
}
330
47
100
AcDbScale
 70
     0
300
1:30
140
1.0
141
30.0
290
     0
  0
SCALE
  5
51
102
{ACAD_REACTORS
330
47
102
}
330
47
100
AcDbScale
 70
     0
300
1:40
140
1.0
141
40.0
290
     0
  0
SCALE
  5
52
102
{ACAD_REACTORS
330
47
102
}
330
47
100
AcDbScale
 70
     0
300
1:50
140
1.0
141
50.0
290
     0
  0
SCALE
  5
53
102
{ACAD_REACTORS
330
47
102
}
330
47
100
AcDbScale
 70
     0
300
1:100
140
1.0
141
100.0
290
     0
  0
SCALE
  5
54
102
{ACAD_REACTORS
330
47
102
}
330
47
100
AcDbScale
 70
     0
300
2:1
140
2.0
141
1.0
290
     0
  0
SCALE
  5
55
102
{ACAD_REACTORS
330
47
102
}
330
47
100
AcDbScale
 70
     0
300
4:1
140
4.0
141
1.0
290
     0
  0
SCALE
  5
56
102
{ACAD_REACTORS
330
47
102
}
330
47
100
AcDbScale
 70
     0
300
8:1
140
8.0
141
1.0
290
     0
  0
SCALE
  5
57
102
{ACAD_REACTORS
330
47
102
}
330
47
100
AcDbScale
 70
     0
300
10:1
140
10.0
141
1.0
290
     0
  0
SCALE
  5
58
102
{ACAD_REACTORS
330
47
102
}
330
47
100
AcDbScale
 70
     0
300
100:1
140
100.0
141
1.0
290
     0
  0
SCALE
  5
59
102
{ACAD_REACTORS
330
47
102
}
330
47
100
AcDbScale
 70
     0
300
1/128" = 1'-0"
140
0.0078125
141
12.0
290
     0
  0
SCALE
  5
5A
102
{ACAD_REACTORS
330
47
102
}
330
47
100
AcDbScale
 70
     0
300
1/64" = 1'-0"
140
0.015625
141
12.0
290
     0
  0
SCALE
  5
5B
102
{ACAD_REACTORS
330
47
102
}
330
47
100
AcDbScale
 70
     0
300
1/32" = 1'-0"
140
0.03125
141
12.0
290
     0
  0
SCALE
  5
5C
102
{ACAD_REACTORS
330
47
102
}
330
47
100
AcDbScale
 70
     0
300
1/16" = 1'-0"
140
0.0625
141
12.0
290
     0
  0
SCALE
  5
5D
102
{ACAD_REACTORS
330
47
102
}
330
47
100
AcDbScale
 70
     0
300
3/32" = 1'-0"
140
0.09375
141
12.0
290
     0
  0
SCALE
  5
5E
102
{ACAD_REACTORS
330
47
102
}
330
47
100
AcDbScale
 70
     0
300
1/8" = 1'-0"
140
0.125
141
12.0
290
     0
  0
SCALE
  5
5F
102
{ACAD_REACTORS
330
47
102
}
330
47
100
AcDbScale
 70
     0
300
3/16" = 1'-0"
140
0.1875
141
12.0
290
     0
  0
SCALE
  5
60
102
{ACAD_REACTORS
330
47
102
}
330
47
100
AcDbScale
 70
     0
300
1/4" = 1'-0"
140
0.25
141
12.0
290
     0
  0
SCALE
  5
61
102
{ACAD_REACTORS
330
47
102
}
330
47
100
AcDbScale
 70
     0
300
3/8" = 1'-0"
140
0.375
141
12.0
290
     0
  0
SCALE
  5
62
102
{ACAD_REACTORS
330
47
102
}
330
47
100
AcDbScale
 70
     0
300
1/2" = 1'-0"
140
0.5
141
12.0
290
     0
  0
SCALE
  5
63
102
{ACAD_REACTORS
330
47
102
}
330
47
100
AcDbScale
 70
     0
300
3/4" = 1'-0"
140
0.75
141
12.0
290
     0
  0
SCALE
  5
64
102
{ACAD_REACTORS
330
47
102
}
330
47
100
AcDbScale
 70
     0
300
1" = 1'-0"
140
1.0
141
12.0
290
     0
  0
SCALE
  5
65
102
{ACAD_REACTORS
330
47
102
}
330
47
100
AcDbScale
 70
     0
300
1-1/2" = 1'-0"
140
1.5
141
12.0
290
     0
  0
SCALE
  5
66
102
{ACAD_REACTORS
330
47
102
}
330
47
100
AcDbScale
 70
     0
300
3" = 1'-0"
140
3.0
141
12.0
290
     0
  0
SCALE
  5
67
102
{ACAD_REACTORS
330
47
102
}
330
47
100
AcDbScale
 70
     0
300
6" = 1'-0"
140
6.0
141
12.0
290
     0
  0
SCALE
  5
68
102
{ACAD_REACTORS
330
47
102
}
330
47
100
AcDbScale
 70
     0
300
1'-0" = 1'-0"
140
12.0
141
12.0
290
     0
  0
ENDSEC
  0
EOF
